Проигрыш:
Am (и один такт играется аккорд, потом опять)
e-------------------0-
b---5р3h5р3---------1-
g-----------5-4-2---2-
d-------------------2-
a-------------------0-
e---------------------
Am
Фишечки:
e--12р10h12р10--------------5-
b--------------13-12-10(8)--5-
g---------------------------5-
d---------------------------7-
a---------------------------7-
e---------------------------5-

10(8) - Сие озночает, что вообще-то там
10, но можно поиграть и 8...

[ Вообще вся песня играется с массой фишечек,
постоянный mute, хитроумный ритм, и т.д.
Это в том плане, как сыграть получше на акустике... ]

Am Am
Я тебе подарю белый колпак,
Am Am
Приколи на него золотую звезду,
F C
Раздобудь себе ночь и зажги в ней маяк,
Dm F Am
Но смотри, не забудь про колпак и звезду.

Я тебе подарю белый колпак,
Приколи на него серебряный крест.
Раздобудь себе холм, чтобы видеть с него
Что лежит под тобой, что твориться окрест.

Я тебе подарю белый колпак,
Приколи на него бронзовый серп.
Поплыви по реке и смотри на него
В отраженьи воды, в отраженьи небес.

Я тебе подарю белый колпак,
Приколи на него осиновый кол,
Разыщи страшный клад, заключи его в твердь,
Чтоб кого-то найти, и накрой колпаком.

Белый колпак.




Ваше мнение



Капча