Date: Wed, 8 Jan 1997 22:43:14 +0000
From: [email protected]
/c/Neneh_Cherry/Somedays.tab
By Cherry, McVey, Barrow, from Homebrew. Piano's tabbed for guitar, put a
Capo on at the 5th fret to play along with the CD, enjoy :
[main riff] :
Bm Bm/A G Em F#m
E -----------------------------------------0---------------------
B ----3---3---------3----3---------3-----2-----0----------2------
G ---4---4---4-----4----4---4-----4----------2-------2--2---2----
D ------4---4----------4---4---------5---2----------4--4------4--
A -2-------------0-----------------------------------------------
E -----------------------------3------------------2--------------
[repeats through the whole song]

[2nd line of intro -this synth part over it]
// \\
E --||.--2------0---2--------.||---
B --||.-----3----------------.||---
\\ // x 4

Bm Bm/A G Em F#m
Wake up without a blink to an even pace where nothing moo-ooves
Except the pressure from a funky Saturday dropping like bricks on my head
Over the milky way starlit electric beams had only just touched me
I must have dreamt myself astra-ay
The only milky way I have is in the middle of the day
[chorus]:
Somedays are better than somedays
Good Sundays are better than somedays
Today I'd even take a bad Sunday
Coz this su-u-undays pure pressure inside of me
Danced, 'till my feet were blue
Can't erase the thought, I just remember you
Tears lost in the turn of the ye-e-e-ears
Return on days like this
Kissing in the sunrays
I knew that it was Sunday
Coz my memory's like blueprints in my head
Somedays are better than somedays
Good Sundays are better than somedays
Today I'd even take a bad Sunday
Coz this su-u-undays pure pressure inside of me [stop]
[rap] :
Em F#m
Em F#m A
Get me grits and egg give me ham and bacon and a
Em F#m
Pancake with some maple syrup makes it's
Em F#m A
Sunday
[start over again with picking & synth, then fade out]
Strum the chords behind the picking, too
EADGBe
X24432 - Bm
X04432 - Bm/A
355433 - G
022000 - Em
244222 - F#m
577655 - A
Nic
[email protected]




Ваше мнение



Капча