From [email protected] Fri Mar 21 11:24:27 1997
Date: Wed, 12 Mar 1997 19:44:50 +0000
From: [email protected]
To: [email protected]
/c/Neneh_Cherry/Everything.tab
By Cherry, McVey, Sharp, from the Man album.
This is mostly Dm C Bb throughout, but played with different fingerings
In different parts of the song:
-at the nut for the quiet (piano) bit
-at the 5th & 3rd frets for the middle bit
-and 10th 8th 6th frets for the loud bit (chorus)
[quiet bit]:
This is roughly the piano part arranged for guitar:
Dm Dm/C /B Dm Dm Dm/C Am(V)
E ----1-1---0-0---0--1---(/5-3-0)---1-1---0-1---5---------||-
B ----3-3---3-3---3--0-3------------3-3---3-3---5---------||-
G ---------------(2)---2-----------------------(5)-------.||-
D ----0-0--------------0------------0-0------------------.||-
A --0-------3-3---2------------------------3-3----------7--||-
E ---------------------------------------------(5)-----5--||-
[or just play the bass part]:
A ----------------------------------------------12-------.||-
E --13-----12-----10--------(12)----13----12-------------.||-
Dm Dm/C /B Dm Dm Dm/C Am
Everything, anything I see anything, everything I feel
Everyday anytime I know anything, everyone has to go
[middle bit]:
Dm(V) C(V) Bb(III) C
E -------------------------------------------------------||-
B -6----6------5-----5-------3---------------------5-----||-
G -7----7------5-----5-------3---------------------5----.||-
D -7----7------5-----5-------3---------------------5----.||-
A -5----5------------------------------------------------||-
E -------------------------------------------------------||-
Dm C Bb C
Champagne lingers in my glass, party's over
I see my reflection sipping and it
Reminds me I'd like to see you having more
Fu---u-----un, if you can
I look at you but its
[loud bit/chorus]:
Dm(X) C(VIII) Bb(VI) *
E ---------------------------------------------------||-
B ---------------------------------------------------||-
G --10-10-10-10---9--9--9---9---7-7-7-7---7-7-7-7---.||-
D --12-12-12-12---10-10-10--10--8-8-8-8---8-8-8-8---.||-
A --12-12-12-12---10-10-10--10--8-8-8-8---8-8-8-8----||-
E --10-10-10-10---8--8--8---8---6-6-6-6---6-6-6-6----||-
Dm C Bb *
Me I see its everything I kno---ow its
Me I see its everything I fe-----el its
Everything and everyone around me that I see
Bb(VI)
Everything is real
Am(V)
Everything I feel
[quiet bit]
In my mirror I see myself
In that mirror inside myself
[middle bit]:
Sometimes I feel it coming to me
Thinking of you when I'm looking at my body
I can touch myself with my own understanding
My resolution to be broken that I see now
[loud bit/chorus]
Dm(X) C(VIII) Bb(VI) *
Its me I see its everything I kno---ow its
Me I see its everything I fe-----el its
Everything and everyone around me that I know
Bb(VI)
Everything is real
Am(V)
Everything I feel
[bridge]:
Dm(X) C(VIII) Bb(VI) Am(V)
E --------------------------------------------------||
B --------------------------------------------------||
G -------------------------------------------------.||
D -12-12-12-12-10-10-10-10--8--8--8--8--7--7--7--7-.||
A --------------------------------------------------||
E -10-10-10-10--8--8--8--8--6--6--6--6--5--5--5--5--|| x 2
Dm(X) C(VIII) Bb(VI) Am(V)
E --------------------------------------------------
B --------------------------------------------------
G --------------------------------------------------
D -12-12-12-12-10-10-10-10--8--8--8--8--7--7--7--7--
A --------------------------------------------------
E -10-10-10-10--8--8--8--8--6--6--6--6--5--5--5--5--
No real solutions in clippings from the past
Dm
E --1-----1-----1-----1---1-----1----1-----1--------
B --3-----3-----3-----3---3-----3----3-----3--------
G --------------------------------------------------
D --0-----0-----0-----0---0-----0----0-----0--------
A --------------------------------------------------
E --------------------------------------------------
I see my reflection at last
Dm(X) C(VIII) Bb(VI) Am(V)
E --------------------------------------------------
B --------------------------------------------------
G --------------------------------------------------
D -12-12-12-12-10-10-10-10--8--8--8--8--7--7--7--7--
A --------------------------------------------------
E -10-10-10-10--8--8--8--8--6--6--6--6--5--5--5--5--
Books full of pictures remembering the blasts
Dm
E --1-----1-----1-----1---1-----1----1-----1--------
B --3-----3-----3-----3---3-----3----3-----3--------
G --------------------------------------------------
D --0-----0-----0-----0---0-----0----0-----0--------
A --------------------------------------------------
E --------------------------------------------------
Times consequences makes me go fast
[strings]:
Dm C Bb
E -----------------------------------||--
B ----------------------------6------||--
G --------10--------9---------7--7--.||--
D --------12--------10-----------8--.||--
A --------12--10----10--8------------||--
E -(10)-------8---------6------------||-- x 4
[loud bit/chorus] :
Dm(X) C(VIII) Bb(VI) *
Me I see its everywhere I go-----o its
Me I see its everything I se-----ee its
Me I see its everywhere I go-----o yeah its
Me I see its everything I fe-----eel its
Me I see its everywhere I go-----o its
Me I see its everything I se-----ee its
Everything and everyone around me that I love
Bb(VI)
Everything is real
Am(V)
Everything I feel
[outro -repeat quiet bit x 2 then run up the scale]:
E ---------------------0---1---------------
B -----------------1--(3)--3---------------
G -----------0--2---------(2)--------------
D --0--2--3---------------(0)--------------
CHORDS :
[quiet bit]
EADGBe
Xx0231 - Dm }
X3x231 - Dm/C }
X3x230 - Dm/C+2 ? } keep your 2nd & 3rd fingers on the
X20231 - Dm/B } G and B strings through all of these
X20230 - Dm/B+2 }
577555 - Am(V)
[middle bit]
EADGBe
X57765 - Dm(V)
Xx555x - C(V) (fret it with you index finger)
Xx333x - Bb(III) (fret it with you index finger)
[loud bit]
E A D G B e
10 12 12 10 10 10 - Dm(X)
8 10 10 9 8 8 - C(VIII)
6 8 8 7 6 6 - Bb(VI)
5 7 7 5 5 5 - Am(V)
* I'm sure when they did this live, this part was a change to Am(V), and
Didn't stay on the Bb
Any corrections or improvements welcome.....
Nic
[email protected]




Ваше мнение



Капча