Info: http://www.Nena.com

Tabbed by Nathan S (Aka Pyrox)

|----------------------------------------------------------------|
|----------------------------------------------------------------|
|----------------------------------------------------------------|
|----------------------------------------------------------------|X4 (the first
|--2--2--0--2--0------2--2--0--2--0------------------------------|time x2 the
|------------------------------------0---------------------------|second time
that this
part comes in)

|----------------------------------------------------------------|
|----------------------------------------------------------------||
|----------------------------------------------------------------||
|----------------------------------------------------------------||
|--2--2--0--2--0--2h4p2--2--2--0---------------------------------||
|----------------------------------------------------------------|
|X2
|----------------------------------------------------------------| /
|----------------------------------------------------------------||
|----------------------------------------------------------------||
|----------------------------------------------------------------||
|--2--2--0--2--0--------0---2------------------------------------||
|----------------3-3-3-------------------------------------------|/


|--2---4---0---4---2---0--------5--5--5--5--5---4---2----0-------|
|-------------------------2--------------------------------------|
|----------------------------------------------------------------|
|----------------------------------------------------------------|
|----------------------------------------------------------------|
|----------------------------------------------------------------|

Enjoy and if any questions or coments email me at [email protected]
(L 0 (a zero)i ) email me if you want me to try to put together some
other tabs to.




Ваше мнение



Капча