Standard Tuning - E A D G B E
99 red ballons solo
|-------------------------------------------------|
|--7--9-----9--7--5-----9--7--5--5-----5-----5--7-|
|--------9-----------6--------------6-----6-------|
|-------------------------------------------------|
|-------------------------------------------------|
|-------------------------------------------------|
|--------------------------------------7----------|
|--7--9-----9--7--5-----9--7--5--5--------9--7----|
|--------9-----------6--------------6-----------9-|
|-------------------------------------------------|
|-------------------------------------------------|
|-------------------------------------------------|
if you have any questions, i don?t give a ***t




Ваше мнение



Капча