Nelly - Work It
Tabbed By: rap_boy
EMail: [email protected]
intro
g|----0---0-0-|
d|------------|
a|-0----------|
e|------------|
rest of song
g|-------------|
d|-------------|
a|-0---0-0---0-|
e|---------4---|





Ваше мнение



Капча