Artist: Nelly
Album: Da Derrty Versions
Track: Iz U
Standard E Tuning

Intro & Riff

Play This Throughout the Song

E-----------------|
B-----------------|
G-------------7---|
D-7-9-9-|-7-9-7-9-|
A-7-9-9-|-7-9-5-9-|
E-5-7-7-|-5-7---7-|
E-----------------|
B-----------------|
G-------------7---|
D-7-9-9-|-7-9-7-9-|
A-7-9-9-|-7-9-5-9-|
E-5-7-7-|-5-7---7-|

E-----------------|
B-----------------|
G-------------7---|
D-7-9-9-|-7-9-7-9-|
A-7-9-9-|-7-9-5-9-|
E-5-7-7-|-5-7---7-|

E-----------------|
B-----------------|
G-------------7---|
D-7-9-9-|-7-9-7-9-|
A-7-9-9-|-7-9-5-9-|
E-5-7-7-|-5-7---7-|

Pretty Simple Eh?

It sound's really similar to the music on court shows when the guy with the wierd voice

is saying whats going on and why the people are in court. Go Figure.





Ваше мнение



Капча