Nelly - Hot In Herre
Tabbed By: rap_boy
EMail: [email protected]
intro
g|-------------------|
d|--0---0---0---0----|
a|-------------------|
e|-0---0---0---0---0-|
rest of song
g|--------------------------------------------|
d|--2---2---2---2---2---2---2---2------2--2-2-|
a|--------------------------------------------|
e|-0---0---0---0---0---0---0---0---0----------|





Ваше мнение



Капча