Artist: Nelly
Song: #1
Transcripter: SMATT ([email protected]}
This is my first tab, so bear with me. It sounds pretty accurate
but may need a little fine tuning.
Riff 1
E|----------0---------------0---------------0-------|
B|------------1---------------1---------------1-----|
G|------2-------2--------2------2--------2------2---|
D|----2----------------2---------------2------------|
A|--0----------------0---------------0--------------|
E|--------------------------------------------------|
Riff 2
E|---------3/5-7-5-8-7-5-3h5p3h5--------------------|
B|--------------------------------------------------|
G|------2-------------------------------------------|
D|----2---------------------------------------------|
A|--0-----------------------------------------------|
E|--------------------------------------------------|
Riff 3 X 8
E|----------0--------------0-------0------0-----0---|
B|------------1-------------------------------------|
G|------2-------2--------2-------2------2-----2-----|
D|----2----------------2-------2-----2-----2--------|
A|--0----------------0-------0-----0-----0----------|
E|--------------------------------------------------|
Riff 4 X 8
E|--3h5-3/8-7-5-3h5p3h5-----------------------------|
B|--------------------------------------------------|
G|--------------------------------------------------|
D|--------------------------------------------------|
A|--------------------------------------------------|
E|--------------------------------------------------|
Riff 3 X 4
E|----------0--------------0-------0------0-----0---|
B|------------1-------------------------------------|
G|------2-------2--------2-------2------2-----2-----|
D|----2----------------2-------2-----2-----2--------|
A|--0----------------0-------0-----0-----0----------|
E|--------------------------------------------------|
*Pause in Guitar*
Riff 5 X 4
E|----------0---------------------------------------|
B|------------1------------1-------3----------------|
G|------2-------2--------2-------2------------------|
D|----2----------------2-------2--------------------|
A|--0----------------0-------2----------------------|
E|--------------------------------------------------|
Riff 4 X 8
E|--3h5-3/8-7-5-3h5p3h5-----------------------------|
B|--------------------------------------------------|
G|--------------------------------------------------|
D|--------------------------------------------------|
A|--------------------------------------------------|
E|--------------------------------------------------|
Riff 3 X 7 (There is a break in the guitar after the 3rd time)
E|----------0--------------0-------0------0-----0---|
B|------------1-------------------------------------|
G|------2-------2--------2-------2------2-----2-----|
D|----2----------------2-------2-----2-----2--------|
A|--0----------------0-------0-----0-----0----------|
E|--------------------------------------------------|
Riff 4 X (About 24 times)
E|--3h5-3/8-7-5-3h5p3h5-----------------------------|
B|--------------------------------------------------|
G|--------------------------------------------------|
D|--------------------------------------------------|
A|--------------------------------------------------|
E|--------------------------------------------------|





Ваше мнение



Капча