#----------------------------------PLEASE NOTE--------------------------------#
#This file is the author's own work and represents their interpretation of the#
#song. You may only use this file for private study, scholarship, or research.#
#-----------------------------------------------------------------------------#
Nelly Furtado
Turn Off The Light
Tabbed by: Andres ([email protected])
***********************************************
Visit www.geocities.com/clubtabz for more tabs!
***********************************************
Hey! I'll tab all riffs first and will give the order at the bottom.
Riff 1
E------------------------------------------10----------------
B-----------8--------------12-----7--8---------7h8p7-7-------
G--9-----9-------------12------7--------7---------------7----
D-----9------------12----------------------------------------
A--------------10--------------------------------------------
E------------------------------------------------------------
Riff 2
E-----------------------------------
B-----------8--------------12-------
G--9-----9-------------12------7----
D-----9------------12---------------
A--------------10-------------------
E-----------------------------------
Riff 3
E--------------------------------2------------------------------------------
B----------3---------------------3------------------------------------------
G--0---0---2-----0-------0----0--2------------------------------------------
D--2---0---0-----2--2-2--0----0--0------------------------------------------
A--2---x---------2--2-2--x--------------------------------------------------
E--0---3---------0-------3--3-----------------------------------------------
Riff 4
E---------------------------------------------------------------------------
B----------3-------------3------------------------------------------3-------
G--0---0---2-----0---0---2---2-0-----------0-----------------2---2--2-------
D--2---0---0-----2---0---0-------2----2--2----------0---0--0-----------0----
A--2---x---------2---x------------------------------------------------------
E--0---3---------0---3-------------------------3--3-------------------------
E---------------------------------------------------------------------------
B-------------3-------------------------------------------------------------
G--0---0---0--2----42------------------------------------------------------
D--2-2-0---0--0-------------------------------------------------------------
A--2-2-x--------------------------------------------------------------------
E--0---3-3------------------------------------------------------------------
Riff 5
E--------------
B--------------
G--2---0--0----
D--2---0--2----
A--0---x--3----
E------3-------
Chords for CHORUS
Em: 022000
G: 3x0033
Dsus2: xx0230
Riff 6
E---------------
B---------------
G--2---2p0------
D----------0----
A---------------
E---------------
Riff 7
E----------------
B----------------
G----------------
D--2--2--4--5----
A----------------
E----------------
Riff 8
E--0---0----
B--3---3----
G-----------
D-----------
A-----------
E-----------
Riff 9
E----7---------------------------------------------------
B-----------8-----------------7----8----10----8----10----
G--9------7------7/9--97-----7----9----11----9----11----
D--------------------------------------------------------
A--------------------------------------------------------
E--------------------------------------------------------
E--------------------------------------------------------
B--------------------------------------------------------
G--2-2-2-2-2-2-2-2--5-5-5-5-5-5-5-5----------------------
D--2-2-2-2-2-2-2-2--5-5-5-5-5-5-5-5----------------------
A--0-0-0-0-0-0-0-0--3-3-3-3-3-3-3-3----------------------
E--------------------------------------------------------
SOLO
E----------------------------------------------------------------
B----------------------------------------------------------------
G--2--2--2p0-----------------------------------------------------
D------------2---0--2--0-----------------0-----------------------
A-------------------------2--0-----0--2--------------------------
E-------------------------------3--------------------------------
E---------------------------------0----0-------------------------
B--------------0----5--5--3-------3/5--5--5----------------------
G-------0--2---2/4--4--4--4--4----2/4--4--4--4--2--2-------------
D-0--2-----------------------------------------------------------
A----------------------------------------------------------------
E----------------------------------------------------------------
E----------------------------------------------------------------
B----------------------------------------------------------------
G--0--0h2-2--0--2--2---0--2--4--2--0-----------------------------
D-------------------------------------2--------------------------
A----------------------------------------------------------------
E----------------------------------------------------------------
E----------------------------------------------------------------
B----------------------------------------------------------------
G--------0--------------------------------2--2---2p0-----0-------
D--0--2-----2--0--2--0-----------0--------------------2-----2----
A-----------------------2--0--2----0-----------------------------
E----------------------------------------------------------------
E---------------555555-777---------------------------------------
B----------0----333333-555---------------------------------------
G--2p0-----0-----------------------------------------------------
D-------2--------------------------------------------------------
A----------------------------------------------------------------
E----------------------------------------------------------------

INTRO
-Riff 1
-Riff 2
-Riff 3
VERSE 1
-Riff 4
BRIDGE 1
-Riff 5
CHORUS
Play the Chords for CHORUS and over those chords:
-Riff 1 (4x)
VERSE 2
Play the same chords as in VERSE 1:
E-------------
B--------3----
G--0--0--2----
D--2--0--0----
A--2--x-------
E--0--3-------
After this phrase:
'... I'm ready for a change'
-Play Riff 6
BRIDGE 2
Strum these chords
E--(0)--------0----
B---x---------3----
G---2----0----0----
D---2----0----2----
A---0----x----3----
E--------3---------
The open E (0) is played occasionally.
-Then Riff 7
CHORUS
-Chords for CHORUS
-Riff 1 (3x)
-Riff 2
-Add Riff 8 right before:
'Not everything...'
This part comes after the CHORUS
-Riff 9
-SOLO
END
Same as CHORUS
It's not hard really...:)
Enjoy!




Ваше мнение



Капча