This tab is like the most other, but i think this is the real tab!! It sounds better to
Have fun ;)

e--------------------------------------|
B-----(0)--------0---------0-------0---|
G------0-----7-7-7--x--5-5-5-x-5-5-5---|
D--2-2-2--x--7-7-7--x--5-5-5-x-4-4-4---|
A--2-2-2--x--5-5-5--x--3-3-3-x-3-3-3---|
E--0-0----x----------------------------|

e--------------------------------------|
B-----(0)--------0---------0-------0---|
G------0-----7-7-7--x--5-5-5-x-5-5-5---|
D--2-2-2--x--7-7-7--x--5-5-5-x-4-4-4---|
A--2-2-2--x--5-5-5--x--3-3-3-x-3-3-3---|
E--0-0----x----------------------------|

e--------------------------------------|
B-----(0)--------0---------0-------0---|
G------0-----7-7-7--x--5-5-5-x-5-5-5---|
D--2-2-2--x--7-7-7--x--5-5-5-x-4-4-4---|
A--2-2-2--x--5-5-5--x--3-3-3-x-3-3-3---|
E--0-0----x----------------------------|

Play this through the whole song, except for the chorus!




Ваше мнение



Капча