e: Wed, 01 Apr 1998 19:15:49 +0200
From: David Alpi
Subject: TAB: n/nek/sei_grande.tab
SEI GRANDE - NEK
(Words & Music by Nek, M.Varini, A.De Sanctis)
From the album "Lei, gli amici e tutto il resto" (1997 Don't Worry
S.r.l.)
SEI GRANDE (Nek)
INTRO: D Bm G Em9
D Bm
Ogni passo, ogni faccia, ogni cosa che fai
G A D
Ogni volta e' un massacro se tu te ne vai
D Bm
Si lo so che mi piace fermarmi a pensarti
G A D2
Ma se posso toccarti funziona di piu'.
Am7 D
E non serve spiegarti la storia che sei
D D4 D Am7
[le parole son senza ritorno lo sai]
Am7 D
Preferisco appoggiare le labbra alle tue
D D4 D Am7
[col respiro che si agita contro le mie]
C2 G6/B
Non mi va di parlare di ieri
Gm6/Bb
Con la vita non ci sto mai pari
A4 A
Tu sei molto diversa dagli altri, dai di piu'.
CHORUS:
D Bm7
A pensarci bene il bello di te
G Em9
E' che viaggi sempre sulle mie frequenze, sei grande
D Bm7
Ed in certe cose sei come me
G A4 A
Non t'accontenti di essere una tra tante, sei grande
INTRO Chords.
Am7 D
Ed ho molto rispetto per ogni tua idea
D D4 D Am7
[non la voglio cambiare per pazzesca che sia]
Am7 D
Non ti stresso per farti piu' simile a me
D D4 D C2
[che se fossi diversa non saresti piu' te]
G6/B
Poi nessuno conosce nessuno
Gm6/Bb A4 A
Non si sa mai con chi stai, pero'
CHORUS:
D Bm7
A pensarci bene il bello di te
G Em9
E' che viaggi sempre sulle mie frequenze, sei grande
D Bm7
Prendi quel che serve fino che c'e'
G
Mi dai tanto e non te ne accorgi neanche
Em9 A4 A
Sei grande, ma grande______
SOLO (Chords: D C6/9 G/B A7 D C6/9 G/B A7
D C6/9 G/B A A4 A D5 D5/B D5/E)
(w/clean electric guitar and chorus)
e---------------------|----------------|--------------------|------
B---------------------|----------------|--------------------|------
G----7--9^7------7----|----------------|----11-12-11-9---11-|9-----
D-----------10-----10-|9---10-9-7----7-|9-------------------|--12--
A---------------------|-----------10---|--------------------|------
E---------------------|----------------|--------------------|------
e---------------------|----------------------|---------------------
B---------------------|-10--12^10------10----|---------------------
G----9----------------|-----------12------12-|11---12-11-9---------
D------12-11-9-11-12--|----------------------|-------------12------
A---------------------|----------------------|---------------------
E---------------------|----------------------|---------------------
e------|------------------------
B------|------------------------
G----9-|11-11-9-11-9-11-9-11----
D------|------------------------
A------|------------------------
E------|------------------------
CHORUS (x2):
D5 D5/B
A pensarci bene il bello di te
D5/G D5/E
E' che viaggi sempre sulle mie frequenze, sei grande
D5 D5/B
Ed in certe cose sei come me
D5/G D5/E
Non t'accontenti di essere una tra tante, sei grande
OUTRO: D D9 D
(Transcribed by David Alpi, Grosseto, Italy)
(for suggestions, comments or other, please contact me)
(email: [email protected])




Ваше мнение



Капча