---------------------------------------------
SWEET CAROLINE -- Neil Diamond
---------------------------------------------
transcribed by kьpfer
email [email protected]
homepage http://members.home.net/tashko/kupfer/
swing eighths
CAPO II
intro:
e|-------------------------|-------------------------|
B|-------------------------|-------------------------|
G|-4---6-7-----------4---6-|-7---6-4-----7---6-4-----|
D|-------------------------|-------------------------|
A|-------------------------|-------------------------|
E|-0-----0-----0-----0-----|-0-----0-----0-----0-----|
e|-------------------------|-------------------------|
B|-3---5-7-----------3---5-|-7---5-3-----7---5-3-----|
G|-4---6-7-----------4---6-|-7---6-4-----7---6-4-----|
D|-------------------------|-------------------------|
A|-------------------------|-------------------------|
E|-0-----0-----0-----0-----|-0-----0-----0-----0-----|
e|-------------------------|-------------------------|-9-----------7-----------|
B|-7---9-10----------7---9-|-10----------9-----------|-------------------------|
G|-7---9-11----------7---9-|-11----------9-----------|-9-----------7-----------|
D|-------------------------|-------------------------|-------------------------|
A|-------------------------|-------------------------|-------------------------|
E|-0-----0-----0-----0-----|-0-----0-----0-----0-----|-0-----0-----0-----0-----|

A
Where it began
D
I can't begin to knowin'
A E
But then I know it's growing strong
A D
e|-------------------|-----------------|--------|
B|-------------------|-----------------|--------|
G|-------------------|---------2-------|--------|
D|-------------------|-----2-------2---|-4------|
A|-------------------|-----------------|--------|
E|-------------------|-----------------|--------|
Was in the spring
(D)
And spring became the summer
A E
Who'd have believed you'd come along
A A6
Hands, touchin' hands
E D E D/F# E/G#
Reachin' out touchin' me touchin' you
A D
e|------------|---------------|-----------|
B|------------|-------3---2---|-----------|
G|------------|---------------|-----------|
D|------------|---------------|-4---------|
A|------------|---------------|-----------|
E|------------|---------------|-----------|
Sweet Caroline
(D) E D/F# E/G#
Good times never seemed so good
A D
I've been inclined
E D C#m Bm
To believe they never would but now I
Look at the night
And it don't seem so lonely
We fill it up with only two
And when I hurt
Hurtin' runs off my shoulders
How can I hurt when I'm with you
Warm, touchin' warm
Reachin' out
Touchin' me
Touchin' you
Sweet Caroline
Good times never seemed so good
I've been inclined
To believe they never would
Oh, no, no
Sweet Caroline
Good times never seemed so good
I've been inclined
To believe they never would
Sweet Caroline
transcribed by kьpfer
email [email protected]
homepage http://members.home.net/tashko/kupfer/




Ваше мнение



Капча