From: yura [email protected]
наутилус
взгляд с экрана
табулатура снятая с акустической версии
Am Dm
e|------------------------------||-------------------
H|----------------------------5-||-------------------
G|--2--2-----------2--2-2--4--5-||---как нибудь------
D|--2--3--0--2-----2--2-2--2----||-------------------
A|--------------2---------------||-------------------
E|------------------------------||-------------------
e|------------------------------||
H|--5--6--5---------------------||
G|-----------5-----5-5-4-5------||
D|--------------7----------7----||
A|----------------------------7-||
E|------------------------------||




Ваше мнение



Капча