Intro:
E ------------------------------0-----0--------------------------
B ----1-------1-----0-1-----0-1-----1-------0-1-------1---0-1----
G --2-------2-----0-----0-1-------2-----2-0-----0---2---------2--
D 3-------4---------------------------------------3-----3-------3
Verse:
E ------------------------------------0-------------------0------ |
B ----1-------1-----0-1-----0-1-----1-------0-1-------1-------1--:|
G --2-------2-----0-----0-1-----1-2-----2-0-----0---2---2--------:|
D 3----3--4-----4---------------------------------3---------3---- |
Second time repeat the last few notes
It Came On Like A Hurricane
And I Don't Understand
And It Moved Me Like A Slow Dance
Still I Don't Understand
It Pushed Me Like A Tailwind
And I Don't Understand
And It Came In Through The Backdoor
And I Don't Understand
Still I Don't Understand
C G Dm F
You're All That I Could Be
And I'm Falling On My Knees
C
Hurricane
Am
You Pulled Me Out Of The Past
Bb F
And Landed Me In Today
C
Hurricane
(Same As 1st Verse)
It Picked Me Like A Cherry
And I Don't Understand
And It Killed Me With The Craving
And I Don't Understand
It Thrilled Me To Starvation
And I Don't Understand
And It Stripped Me Ugly Naked
Still I Don't Understand
No I Don't Understand
C
Hurricane
Am
You Pulled Me Out Of The Past
Bb F
And Landed Me In Today
C
Hurricane
Am
You Pulled Me Out Of The Past
Bb F
And Walked Me Into Tomorrow
C
Hurricane
(2 times)
C G Dm F
You're All That I Could Be
And I'm Falling On My Knees
C
Hurricane
Am
You Pulled Me Out Of The Past
Bb F
And Landed Me In Today
C
Hurricane





Ваше мнение



Капча