#-------------------------------PLEASE NOTE------------------------------------#
#This file is the author's own work and represents their interpretation of the #
#song. #------------------------------------------------------------------------

NAPALM DEATH - VOLUME OF NEGLECT - (guitar tab)
Albom:Enemy of the Music Business
Comment:
Tune your guitar to NAPALM DEATH new sound(C#,F#,B,E,C#,G)-C# flat.
Riff A(intro)(- 8 times)
|---------------------------------|
|---------------------------------|
|---------------------------------|
|---------------------------------|
|---------------------------------|
|-5-4-5-4-7-4-*-*-8-*-*-*-7-*-*-*-|

Riff B ( - 2 times)
|---------------------------------|
|---------------------------------|
|-7-7-7-7-7-7-7-7-8-8-8-8---------|
|---------------------------------|
|-5-5-5-5-5-5-5-5-6-6-6-6---------|
|-------------------------7-7-7-7-|

|---------------------------------------------|
|---------------------------------------------|
|-11-11-11-11-11-11-11-11-10-10-10-10---------|
|---------------------------------------------|
|-9--9--9--9--9--9--9--9--8--8--8--8----------|
|-------------------------------------7-7-7-7-|

Play Riff A( - 8 times)
Play Riff B( - 4 times)

Riff C ( - 4 times)
|---------------------------------|---------------------------------|
|---------------------------------|---------------------------------|
|-----------------------------7---|-----------------------7---------|
|-------7-6-6-9-6-------7-6-6---6-|-------7-6-6-9-6---------7-7-7-7-|
|---------------------------------|---------------------------------|
|-4-4-4-----------4-4-4-----------|-4-4-4-----------4-4-4-----------|

Riff D (- 2 times)
|-------------------------------------------|
|-------------------------------------------|
|-------------------------------------------|
|----------------------------11--11-13--14--|
|----------------------------9---9--11--12--|
|-11-11-11-11-11-11-11-11-11----------------|

|-------------------------------------------|
|-------------------------------------------|
|-------------------------------------------|
|----------------------------11--11-13--14--|
|----------------------------9---9--11--12--|
|-11-11-11-11-11-11-11-11-11----------------|

|-------------------------------------------|
|-------------------------------------------|
|-------------------------------------------|
|----------------------------11--11-13--14--|
|----------------------------9---9--11--12--|
|-10-10-10-10-10-10-10-10-10----------------|

|-------------------------------------------|
|-------------------------------------------|
|-------------------------------------------|
|----------------------------11--11-13--14--|
|----------------------------9---9--11--12--|
|-10-10-10-10-10-10-10-10-10----------------|

Play Riff C ( - 4 times)
Play Riff D ( - 2 times)
Play Riff B ( - 2 times)

Riff E
|---------------------------------|
|---------------------------------|
|---------------------------------|
|-----------------3-3-3-3-3-3-3-3-|
|-5-4-5-4-7-4-4-4-1-1-1-1-1-1-1-1-|

Play Riff A ( - 12 times)

End on
|----------|---------|
|----------|---------|
|-7--------|---------|
|-5--------|---------|
|-5--------|---------|
|-5--------|---------|

Contact me with any questions or corrections.( [email protected] )
Song tabbed by Yura (2001)




Ваше мнение



Капча