Song: The Lifeless Alarm
Artist: Napalm Death
>From the album: Inside The Torn Apart'97
Transcribed by: Dobromir Alexandrov

This song has actually only two parts. I think that Riff1 is correct but I'm
not 100ЎЪїїЅЪїїНЪїїиЪїї
Ыїї%Ыїї?Ыїї¦ЫїїЬЫїїяЫїї2ЬїїMЬїї^Ьїї…ЬїїЎЬїїДЬїїаЬїїпЬїїCЭїїgЭїї…ЭїїџЭїїеЭїїЛЭїїЩЭїї?ЮїїzЮїїure about Riff2. This is my first tab so forgive me if there are
any mistakes.

Riff1
e-------------------------------
B-------------------------------
G-------------------------------
D-------------------------------
A---5-----5--4-3----5-----5--4-3
E-0-----0---------0-----0-------

e-------------------------------
B-------------------------------
G-------------------------------
D-------------------------------
A---3-----3--2-1----3-----3--2-1
E-0-----0---------0-----0-------

Riff2
e--------------------------------
B--------------------------------
G--------------------------------
D--------------------------------
A---5-4-3-5-4-3-5---5-4-3-5-4-3-5
E-0---------------0--------------

e--------------------------------
B--------------------------------
G--------------------------------
D--------------------------------
A---3-2-1-3-2-1-3---3-2-1-3-2-1-3
E-0---------------0--------------

These two riffs are played over and over again.

Mail any corrections or extras to [email protected]




Ваше мнение



Капча