The Infiltraitor
Words from the exit wound
Tune down a step and a half

A few things to tell about my transcription of the song is the fact
that the structure of the main riff isnt written correctly but just
use your ears to tell when to play each riff also there may a couple
of mistakes like during the blast riff when there are barely audible power
chords played at fast speed but overall this is accurate.
Main riff
-----------------------------------------------------------
-----------------------------------------------------------
-----------------------------------------------------------
7------769-----76------------------------------------------
522263-5472226354------------------------------------------
-00041----00041--------------------------------------------

INFILTRAITOR
-----------------------------------------------------------
-----------------------------------------------------------
-----------------------------------------------------------
3---3--------------3---3-----------------------------------
12221222-7-5-8-----12221222--7-5---8-----------------------
-000-000-------6-4--000-000-----6-4------------------------

A now and later policy...
-----------------------------------------------------------
-----------------------------------------------------------
-----------------------------------------------------------
--------------------------------5--------------------------
22-6--6-2----6-6--22-6-6-2----6----------------------------
00--3---0000--3---00--3--0000--3---------------------------

During the previous riff a guitar plays this:
-----------------------------------------------------------
-----------------------------------------------------------
-----------------------------------------------------------
---5555----------------------------------------------------
---6666----------------------------------------------------
-----------------------------------------------------------

This is the hard to tab part
-----------------------------------------------------------
-----------------------------------------------------------
-----------------------------------------------------------
-9-----9109----9-9-----9-----9109---7-7--------------------
-7----878-7---87878-6--7----878-7--65656-------------------
--000-6----0006-6-64-0-000-6----004-4-4-------------------

GO!
-----------------------------------------------------------
-----------------------------------------------------------
-----------------------------------------------------------
9----9---9-----10---9----9--9----7-------------------------
7---87---7----88----7---87--7---656------------------------
-0006-00--000-6--00--0006-00-0004-4------------------------

Spine snaps on the make
-----------------------------------------------------------
-----------------------------------------------------------
-----------------------------------------------------------
-----3------1------3-2--2-5--------------------------------
-----------------------1-----------------------------------
0-1-4--0-1-3--0-1-4----------------------------------------
Buried up to...
-----------------------------------------------------------
-----------------------------------------------------------
-----------------------------------------------------------
----------------------------55----------------88111188-----
622-2----2----662-6222--2---336222--2---6-1010669-9-661010-
400-0-00-0-000440-4000000000--40000000004-8-8---------8-8--

-----------------------------------------------------------
-----------------------------------------------------------
-----------------------------------------------------------
-----------------------------------------------------------
62---3-5-62--6-8-62---3-5222222----------------------------
4000-13-400046-4000-13000000----------------------------

Other guitar plays this:
-----------------------------------------------------------
-----------------------------------------------------------
-----------------------------------------------------------
9-10-11-12-------------------------------------------------
-----------------------------------------------------------
-----------------------------------------------------------
Ending
-----------------------------------------------------------
-----------------------------------------------------------
-----------------------------------------------------------
-----------------------------------------------------------
6222-------------------------------------------------------
4000-------------------------------------------------------




Ваше мнение



Капча