#-------------------------------PLEASE NOTE------------------------------------#
#This file is the author's own work and represents their interpretation of the #
#song.. #
#------------------------------------------------------------------------------#
Band:NAPALM DEATH
Song:Next on the list
Albom:Enemy of the music Business
Tabed by:Yura ([email protected])

Riff A( x 2 times)
C#|---------------------------|---------------------------|
G#|---------------------------|---------------------------|
E |---------------------------|---------------------------|
B |---------------------------|---------------------------|
F#|-0--0--0--0-0-0-0-0--0--0--|-6--6--6--6-6-6-6-6--6--6--|
C#|-5--5--5--5-5-5-5-5--5--5--|-5--5--5--5-5-5-5-5--5--5--|

|---------------------------|---------------------------------|
|---------------------------|---------------------------------|
|---------------------------|---------------------------------|
|---------------------------|---------------------------------|
|-4--4--4--4-4-4-4-4--4--4--|-3-3-3-3-3-3-3-3-----------------|
|-5--5--5--5-5-5-5-5--5--5--|-5-5-5-5-5-5-5-5-2-2-2-2-2-2-2-2-|

|---------------------------|---------------------------|
|---------------------------|---------------------------|
|---------------------------|---------------------------|
|---------------------------|---------------------------|
|-0--0--0--0-0-0-0-0--0--0--|-6--6--6--6-6-6-6-6--6--6--|
|-5--5--5--5-5-5-5-5--5--5--|-5--5--5--5-5-5-5-5--5--5--|

|---------------------------|---------------------------|
|---------------------------|---------------------------|
|---------------------------|---------------------------|
|---------------------------|-4--4--4--4-4-3-3-3--3--3--|
|-4--4--4--4-4-4-4-4--4--4--|---------------------------|
|-5--5--5--5-5-5-5-5--5--5--|-5--5--5--5-5-5-5-5--5--5--|
Riff B
|--------------------|-----------------|--------------------|-----------------|
|--------------------|-----------------|--------------------|-----------------|
|--------------------|-----------------|--------------------|-----------------|
|--------------------|-8-8-8-8-8-8-8-8-|--------------------|-----------------|
|-7---11-7-11-7-11-7-|-6-6-6-6-6-6-6-6-|-7---11-7-11-7-11-7-|-3-3-3-3-4-4-6-6-|
|-5---9--5-9--5-9--5-|-----------------|-5---9--5-9--5-9--5-|-----------------|

|--------------------|-------------------|--------------------|
|--------------------|-------------------|--------------------|
|--------------------|-------------------|--------------------|
|--------------------|-------------------|--------------------|
|-7---11-7-11-7-11-7-|-8-8-8-8-9-9-11-11-|-7---11-7-11-7-11-7-|
|-5---9--5-9--5-9--5-|-------------------|-5---9--5-9--5-9--5-|
Riff C (with bass)
|-----------------| RiffA | R |-------------------|-------------------------|
|-----------------|(4 times)| I |-------------------|-------------------------|
|-----------------| | F |-------------------|-------------------------|
|-----------------| | F |-------------------|-------------------------|
|-3-3-3-3-4-4-6-6-| | B |-7-7---------------|-7-7---7-7---7-7---7-7---|
|-----------------| | |-5-5---------------|-5-5---5-5---5-5---5-5---|
Riff D( x 2 times)
|-----------------|-------------------|-----------------|---------------------|
|-----------------|-------------------|-----------------|---------------------|
|-----------------|-------------------|-----------------|---------------------|
|-------7-------7-|---9-7-10---9-7-10-|-------7-------7-|---11-9-12---11-9-12-|
|-7-7-7-5-7-7-7-5-|-------------------|-7-7-7-5-7-7-7-5-|---------------------|
|-5-5-5---5-5-5---|-7--------7--------|-5-5-5---5-5-5---|-9---------9---------|
Riff E( x 4 times) Riff F( x 4 times)
|--------------| |------------------|
|--------------| |------------------|
|--------------| |------------------|
|--------------| |-7-5-7-8---7-8-10-|
|-5-3-5--6-----| |-5-3-5-6-5-5-6-8--|
|-----------3--| |---------3--------|
Riff D ( x 2 times)
Riff E( x 4 times)
Riff F( x 4 times)

Riff G( x 2 times) Riff H( x 2 times)
|-------------------------|-------------------------| |----------------|
|-------------------------|-------------------------| |----------------|
|-------------------------|-------------------------| |----------------|
|-10-10-10-10-10-10-10-10-|-10-10-10-10-10-10-10-10-| |----------------|
|-0--0--0--0--0--0--0--0--|-0--0--0--0--0--0--0--0--| |-5-5-5----5-6-3-|
|-8--8--8--8--8--8--8--8--|-6--6--6--6--6--6--6--6--| |-3-3-4----4-5-2-|
Riff I ( x 8 times)
|-----------| |---------------|----------|
|-----------| |---------------|----------|
|-----------| |---------------|----------|
|-----------| |---------------|----------|
|----3------| |-5-5-5--5-6-3--|-5--------|
|----2------| |-3-3-4--4-5-2--|-3--------|

End of song




Ваше мнение



Капча