#-------------------------------PLEASE NOTE------------------------------------#
#This file is the author's own work and represents their interpretation of the #
#song. You may only use this file for private study, scholarship, or research. #
#------------------------------------------------------------------------------#
Band:NAPALM DEATH
Song:Necessary Evil
Albom:Enemy Of The Music Business
Tabed by:Yura ([email protected])
Riff A
C#|---------------|---------------|---------------|----------------|
G#|---------------|---------------|---------------|----------------|
E |---------------|---------------|---------------|----------------|
B |-5------5------|-5------5------|-5------5------|-5----------5-4-|
F#|-3-5-4--3-5-4--|-3-5-4--3-5-4--|-3-5-4--3-5-4--|-3-5-4--7-3-3-2-|
C#|---3-2----3-2--|---3-2----3-2--|---3-2----3-2--|---3-2--5-1-----|
Riff B
|---------------------------------|--------------------------------|
|---------------------------------|--------------------------------|
|---------------------------------|--------------------------------|
|-------------------------2---2-3-|-------------------------5-4-3--|
|-0-------2-------0---------------|-0-------2-------0-------3-2-1--|
|---1-1-1---1-1-1---1-1-1---1-----|---1-1-1---1-1-1---1-1-1--------|
Riff C
|---------------------------------|--------------------------------|-----------|
|---------------------------------|--------------------------------|-----------|
|---------------------------------|--------------------------------|-7--4------|
|-------------------------2---2-3-|-------------------------3-4-5--|-0--0------|
|-0-------2-------0---------------|-0-------2-------0-------1-2-3--|-5--2------|
|---1-1-1---1-1-1---1-1-1---1-----|---1-1-1---1-1-1---1-1-1--------|-----------|
Riff D
|-----------|-----------|-----------------|-----------|-----------|
|-----------|-----------|-----------------|-----------|-----------|
|-6--3------|-----------|-----------------|-----------|-----------|
|-0--0------|-----------|-----------------|-----------|-----------|
|-4--1------|-6--3------|-5-2-5-2-5-2-5-2-|-6--3------|-5--2------|
|-----------|-4--1------|-3-0-3-0-3-0-3-0-|-4--1------|-3--0------|

SONG STRUCTURE:
Riff A ( x 4 times)
Riff B
Riff A ( x 4 times)
Riff B
Riff C ( x 4 times)
Riff D ( x 2 times)
Riff A ( x 4 times)
Riff B
Riff C ( x 4 times)
Riff D ( x 2 times)
END OF SONG




Ваше мнение



Капча