Napalm Death:
Nazi Punks FUCK OFF!!!!
(from the Nazi Punks Fuck Off! Ep)

Well, this is one of my fauvorite songs. Very primitive, but very good.
It isn`t too difficult, but Riff 1 is fast. O.K., here it is:

Intro: (x2)

-------------------------------------------------------------
-------------------------------------------------------------
-------------------------------------------------------------
--4---------------------------------------------------4--4---
--2--6--4--6---4--6--6--6---4--6--6--6---4--6--6--6---2--2---
-----4--2--4---2--4--4--4---2--4--4--4---2--4--4--4----------
x4 x2

Riff 1: (under verse)

-------------------------------------------------------------
-------------------------------------------------------------
-------------------------------------------------------------
-------------------------------------------------------------
--4--6--6---4--6--6---4--6--6---4--4--4----------------------
--2--4--4---2--4--4---2--4--4---2--2--2----------------------


Ваше мнение



Капча