Judicial Slime
By Napalm Death
Tab By Neil Blevins
Album: Utopia Banished

A pretty hard song to tab actually, since there's so much white
noise it's tough to tell exactly what pitch the guitars are
hitting half the time. So even if this transcription ends up
being not 100accurate, then consider it a good starting point.

Guitars are tuned all strings one and a half step down, making
your low string C# or Db.

Tuning (low to high): C# F# B E G# C#

A (4x)

|----------------------|-----------------------|----------------------|-----------------------|
|----------------------|-----------------------|----------------------|-----------------------|
|----------------------|-----------------------|----------------------|-----------------------|
|----------------------|----------33-22--------|----------------------|----------66-----------|
|-----3-3----3-3----3--|--5-55-44-------33-22--|-----3-3----3-3----3--|--5-55-44----55-77-88--|
|--00-1-1-00-1-1-00-1--|--3--------------------|--00-1-1-00-1-1-00-1--|--3--------------------|
.. .. .. .. .. ..

B (4x)

|-------------------|-------------------|-------------------|-----------------|
|-------------------|-------------------|-------------------|-----------------|
|-------------------|-------------------|-------------------|-----------------|
|-----66------------|-----66------------|-----66------------|-----66----------|
|-------5544444444--|-------5544444444--|-------5544444444--|-------55447788--|
|-3344--------------|-3344--------------|-3344--------------|-3344------------|

C (4x)

|---------------------------------------|
|---------------------------------------|
|---------------------------------------|
|---------------------------------------|
|-----2-1-2-1---------------------------|
|-0-3---------0011-2222-2211-2222-2211--|


D (4x)

|------------------------------------------|
|------------------------------------------|
|------------------------------------------|
|------------------------------------------|
|--------33-3333---33-2222-2222-2222-2222--|
|-4444-44--------44------------------------|

Repeat C (4x)
Repeat D (4x)

E (4x)

|-----------------------------------------|
|-----------------------------------------|
|-----------------------------------------|
|-----------------------------------------|
|--------33--------33--------33-----------|
|-2222-22---2222-22---2222-22---2222-2211-|

F (2x)

|----------------------|----------------------|----------------------|----------------------|
|----------------------|----------------------|----------------------|----------------------|
|----------------------|----------------------|----------------------|----------------------|
|----------------------|------------------33--|----------------------|----------------------|
|-----------2200-2200--|-----------2200-22----|-----------2200-2200--|-----------2200-2200--|
|-1111-1111------------|-1111-1111------------|-1111-1111------------|-1111-1111------------|

Repeat E (4x)
Repeat F (4x)

Drum and Bass Riff

G

|----------------------|----------------------|
|----------------------|----------------------|
|----------------------|----------------------|
|----------------------|----------------43-3--|
|-33-3-44-4-33-3-55-5--|-33-3-44-4-33-3-21-1--|
|-11-1-22-2-11-1-33-3--|-11-1-22-2-11-1-------|

H (1x)

|----------------------|
|----------------------|
|----------------------|
|----------------------|
|-2--------------------|
|-0--------------------|




Ваше мнение



Капча