Napalm Death - Incinerator
Original Band - Slaughter
Tabbed By Shazaan Ali
From Leaders Not Followers Album by Napalm Death
Tuning - DGCFAd
Oh yaw, my processor lets me get my tone to make the sound more heavy,
so i get perfect sound just like the song.Main Riff During Whole Song
d-------------
A------------
F-------------
C----2-3-3-3
G----2-3-3-3
D----0-1-1-1
Chorus
d-------
A-------
F--------
C----5-2
G----5-2 (4 Times)
D----3-0
Break
d--------------------------------------------------------------------------------------------------------------
A-------------------------------------------------------------------------------------------------------------
F-------------------------------------------------------------------------------------------------------------
C----8-9-9-9--8-9-9-9--8-9-9-9---9-8-7---6-7-7-7--6-7-7-7--6-7-7-7---7-6-5---4-5-5-5--4-5-5-5--4-5-5-5---5-4-3
G----8-9-9-9--8-9-9-9--8-9-9-9---9-8-7---6-7-7-7--6-7-7-7--6-7-7-7---7-6-5---4-5-5-5--4-5-5-5--4-5-5-5---5-4-3
D----0-7-7-7--0-7-7-7--0-7-7-7---7-6-5---0-5-5-5--0-5-5-5--0-5-5-5---5-4-3---0-3-3-3--0-3-3-3--0-3-3-3---3-2-1
Continued
d------------------------------------------------------------------------------
A-----------------------------------------------------------------------------
F------------------------------------------------------------------------------
C----2-3-3-3--2-3-3-3--2-3-3-3---3-2-1--------------------------------- (2 Times)
G----2-3-3-3--2-3-3-3--2-3-3-3---3-2-1---------------------------------
D----0-1-1-1--0-1-1-1--0-1-1-1---1-0-0---------------------------------
d-----------------------------------------------
A----------------------------------------------
F-----------------------------------------------
C----2--2-2-2-2-2-2-2-2-2-2-2-2-2-2--5-2
G----2--2-2-2-2-2-2-2-2-2-2-2-2-2-2--5-2 (Repeat Until After Solo)(Not Sure How Many Times on this Part)
D----0--2-2-2-2-2-2-2-2-2-2-2-2-2-2--3-0
P.M......................................
Guitar 2 (Solo) I have'nt figured it out yet.
Back To Main
Then To Chorus
d----
A----
F----
C-----2-3-3-3--2-3-3-3--2-3-3-3---4-5-5-5--4-5-5-5--4-5-5-5
G-----2-3-3-3--2-3-3-3--2-3-3-3---4-5-5-5--4-5-5-5--4-5-5-5 (2 Times)
D-----0-1-1-1--0-1-1-1--0-1-1-1---2-3-3-3--2-3-3-3--2-3-3-3
Then
d----
A----
F----
C-----2-3-3--2-3-3----4-5-5--4-5-5
G-----2-3-3--2-3-3----4-5-5--4-5-5 (2 Times)(Let it Ring out in last Chord)
D-----0-1-1--0-1-1----2-3-3--2-3-3
^ ^ ^ ^

^ =(Let Ring for 2 seconds)
THIS IS MY FIRST TAB SO DONT GET FUCKING MAD!!!!!!!!!!!!!!!!!!!!!!!!!!!
HEHEHEHEHHE NAPALM DEATH FUCKING RULES!!!!!!!!!!!!!!!!!!!!!!!!!!!!!!!!!!!
PEOPLE I WANT TWIST THE KNIFE AND PLAGUE RAGES TABS
SO ANYONE HAVE IT, EMAIL ME IT!
[email protected]
Thank You


Ваше мнение



Капча