Hung
Fear,Emptiness,Despair
Tune down a step and a half
Intro
-----------------------------------------------------------
-----------------------------------------------------------
-----------------------------------------------------------
3----------------------------------------------------------
12-2--52---------------------------------------------------
-0-0--30(bass)---------------------------------------------
Main riff (the main part of this riff is played more than written)
---------------------------------------- ----- --------------
---------------------------------------- ----- --------------
---------------------------------------- ----- --------------
3---------3--------3-----3-----------3-- -3336 --------------
12-2-52-2-122-2-52-12-52-1-22222-5-2-122 -1114 -8885---------
-0-0-30-0--00-0-30--0-30---00000-3-0--00 ----- -6663---------
Chorus
---------------- -------------------------------------------
---------------- -------------------------------------------
---------------- -------------------------------------------
------------6--- -------------6-9---------------------------
4-5-4-5-2-5-4-5- -4-5-4-5-2-5-4-7---------------------------
23-23-0-3---3- -2/3-23-0-3-------------------------------
(here one guitar plays the whole riff while the other doubles power chords)
-----------------------------------------------------------
-----------------------------------------------------------
-----------------------------------------------------------
6----6-3-6---363-------------------------------------------
4222-4-1-4---141-------------------------------------------
-000------000----------------------------------------------
I didnt write the exact structure for this riff and the previous
but its fairly simple so use your ears.
-----------------------------------------------------------
-----------------------------------------------------------
-----------------------------------------------------------
2--2-2-2--6-7----------------------------------------------
----------4-58---------------------------------------------
-11-1-1------6---------------------------------------------
-----------------------------------------------------------
-----------------------------------------------------------
-----------------------------------------------------------
------------36---------------------------------------------
5--2--------14---------------------------------------------
300000000000-----------------------------------------------
The riff variation is done at the songs end.
------------- ----------------------------------------------
------------- ----------------------------------------------
------------- ----------------------------------------------
--------3-6-- ----------------------------------------------
5222222-1-4-- -5---------------------------------------------
3000000------ -3---------------------------------------------
This is probably what they call random guitar noise both notes are
played during the previous riff but the second is played after the next riff
---------------------- -------------------------------------
---------------------- -------------------------------------
---------------------- -------------------------------------
---------------------- -------------------------------------
-14-14-14-14-14-14...- ----10-10-10-10...-------------------
---------------------- -------------------------------------
-----------------------------------------------------------
-----------------------------------------------------------
-----------------------------------------------------------
--55555555-------------------------------------------------
5-44444444-------------------------------------------------
3----------------------------------------------------------




Ваше мнение



Капча