Birth In Regress
Inside The Torn Apart
Tune down a minor third(C#,F#,B,E,G#,C#)
Okay, this song includes natural harmonics, those notes will
be put in parentheses ,if you dont know what natural harmonics
are well they are made by putting your finger lightly on the
string over the fret and striking the note.This does take some
practice to include them fluently in the song though.
Intro
-----------------------------------------------------------
-----------------------------------------------------------
-----------------------------------------------------------
-----------------------------------------------------------
888888------8----------------------------------------------
666666-0000-6----------------------------------------------
Other guitar
-----------------------------------------------------------
-----------------------------------------------------------
-----------------------------------------------------------
777777---(5)-----------------------------------------------
--------------8--------------------------------------------
666666-00---0-6--------------------------------------------
Main riff
-----------------------------------------------------------
-----------------------------------------------------------
-----------------------------------------------------------
-----------------------------------------------------------
888888------8----------------------------------------------
666666-0000-6----------------------------------------------
Other guitar
-----------------------------------------------------------
-----------------------------------------------------------
-----------------------------------------------------------
777777---(555555)------------------------------------------
------(7)--------------------------------------------------
666666-----------------------------------------------------
Chorus
-----------------------------------------------------------
-----------------------------------------------------------
-----------------------------------------------------------
--8-----8--------------------------------------------------
77675-7-6--------------------------------------------------
55-53-5----------------------------------------------------
Other guitar(towards the chorus' end)
-----------------------------------------------------------
-----------------------------------------------------------
-----------------------------------------------------------
-----------------------------------------------------------
----6-------6----------------------------------------------
5-3--5-3-5-------------------------------------------------
To subdue the calm before the storm...
-----------------------------------------------------------
-----------------------------------------------------------
--15-15-14------------14-----------------------------------
--------14---15-15-14-14-----------------------------------
0----------0-----------------------------------------------
-----------------------------------------------------------
-----------------------------------------------------------
-----------------------------------------------------------
-15^14-15^14-14-15^14-14-14-14-----------------------------
-------------14-------14-14-14-----------------------------
-----------------------------------------------------------
-----------------------------------------------------------
DESPERATE MEASURES!
-----------------------------------------------------------
-----------------------------------------------------------
-----------------------------------------------------------
-8---7-----8---7--7--8--7------8--7------------------------
--------7------------------7---------7---------------------
6--6--6---6--6--6--6--6--6---6--6--6-----------------------
Any way, shape or form
-----------------------------------------------------------
-------9^8-8------------9^8-8------------------------------
-9^8-8------99-8-9^8-8--------8-9--------------------------
-----------------------------------------------------------
-----------------------------------------------------------
-----------------------------------------------------------
Other guitar (not exact number of pick strikes)
-----------------------------------------------------------
-----------------------------------------------------------
-----------------------------------------------------------
9999999999999999-------------------------------------------
7777777777777777-------------------------------------------
-----------------------------------------------------------
Ending
-----------------------------------------------------------
-----------------------------------------------------------
-----------------------------------------------------------
777777-----------------------------------------------------
-----------------------------------------------------------
666666-----------------------------------------------------




Ваше мнение



Капча