From: Илюха М. А. [email protected]
Проигрыш: Am Dm Am Dm Am
Solo повторяется 2 раза, и играется между каждым куплетом.
Соло совпадает с оригиналом точь-в-точь!!!
|--------------------------------|
|--------------------------------|
|-----5-4--5----5-4-----5-4--5---|
|--------------------------------|
|--0-----------------------------|
|------------7------6-7--------7-|
|-----------------------------------------|
|-------------------------------------7~--|
|-5-4-5-4-5/7~---5----4/7~---5------5~----|
|-----------------------------------------|
|-----------------------------------------|
|------------------7-----------7—-7~------|

Am Dm
Дай мне проверить прочность твоих ресниц, прозрачность глаз
Am
Я изучил состав твоих слёз, и написал об этом рассказ
H(си)
Во всех журналах мира, его издали на всех языках
Dm E Am
И ты теперь плачешь каждый день, и режешь вены на руках
solo
Am Dm
Перерезая горло своё, ты вспоминаешь о том, что есть я
Am
И при этой мысли всегда из под юбки твоей выползает змея
Dm
Мозг твой - враг твоих слов, сердце твоё по венам гонит раствор
Am
Белый раствор мышьяка, смотри, как прекрасна луна
Dm
Похожая на чьё-то лицо. На чьё дай Бог вспомнить. Ах! Да на твоё!
Am
Когда ты увидела смерть, заглянувшую в наше окно
Солнце тоже лицо, но мы не знаем этого
H(си) Dm E Am
Нам не видно его из-за яркого света в глазах
solo
Am Dm
Смотри, как светит Солнце, смотри, как тают облака
Am
Погода будет, как никогда: легка, тепла, и нежна
H(си)
Лишь только лёгкий ветер, шалун, отбившийся от зимних туч
Dm E Am
Волнует волосы твои и мои. Лежим в гробу мы вместе ну и пусть…
Solo, и проигрыш, как в начале.




Ваше мнение



Капча