from: [email protected]
Nailbomb-Wasting Away
from the album "Point Blank"

I'm not sure about the tuning, so mess with it
Verse riff
|----------------------------------------------------------------------------|
|----------------------------------------------------------------------------|
|----------------------------------------------------------------------------|
|----------------------------------------------------------------------------|
|--6--5------5--6-5---5--6-5---5---3---2---2---------------------------------|
|--4--3------3--4-3---3--4-3---3---1---0---0---------------------------------|

Chorus Riff
P.M...............................................
|----------------------------------------------------------------------------|
|----------------------------------------------------------------------------|
|----------------------------------------------------------------------------|
|----------------------------------------------------------------------------|
|-2-2-2-2-2-2-3-3-3-3-3-3-4-4-4-4-4-4-5-5-5-5-5-5----------------------------|
|-0-0-0-0-0-0-1-1-1-1-1-1-2-2-2-2-2-2-3-3-3-3-3-3----------------------------|
Riff right after 2nd chorus
P.M. P.M. P.M. P.M.......
|----------------------------------------------------------------------------|
|----------------------------------------------------------------------------|
|----------------------------------------------------------------------------|
|----------------------------------------------------------------------------|
|-3--3------2--4---3--3------2--4---3--3------2--4---------------------------|
|-1--1--0---0--2---1--1--0---0--2---1--1--0---0--2---1~~~-0----1-1-1-1--0----|
Solo Rhythm
P.M..................................................
|----------------------------------------------------------------------------|
|----------------------------------------------------------------------------|
|----------------------------------------------------------------------------|
|----------------------------------------------------------------------------|
|----------------------------------------------------------------------------|
|-0-0-0-0-0-0-5-5-5-5-5-5-4-4-4-4-4-4-7-7-7-7-7-7-7--------------------------|
Play ^ a few times then do the chorus riff
Ok, Figure out the way the song goes yourself.
Lyrics
Carve your rights into your arm
So they wont get taken away
Trying in vain to figure it out
Always thinking this is a waste
Build it up high
The further the fall
Right down on you
Wasting away
Suffer more, Suffer still
Found release locked away
No values anymore?
Nowhere to turn, Wasted Away!
Build it up high
The further the fall
Right down on you
wasting away
--James Johnson




Ваше мнение



Капча