Wasting Away
by Nailbomb

tabbed by dimitri @ [email protected]

I can't figure out the tuning, but stick around standard.
I am not done yet, I will have the structure as soon as
I get time.

A
||-6-5-5-6-5-5-6-5-5-2-2------------
||-4-3-3-4-3-3-4-3-3-0-0--0---------

B
||----------------------------------
||-0-0-1-1-1-2-2-2-3-3--------------

C
||-4-4-2-2-2-2-5--------------------
||-2-2-0-0-0-0-3--------------------

D (after the bass solo)
||----------------------------------
||-0-0-5-5-5-5-4-4-4-4-7-7----------




Ваше мнение



Капча