NAILBOMB- EXPLOITATION
>From the Album POINT BLANK
Copyright 1994 Roadrunner
Original EXPLOITATION by DOOM
Copyright by Vile music/Peaceville
Transcribed by Cole Farnum ([email protected] edu)

Riff A:
Guitar 1 Guitar 1 and 2
|---------------|---------------------------------------|
|---------------|---------------------------------------|
|---------------|-4---3---5----------------------------|
|---------------|-2---1---5----------------------------|
|-30000000000---|-2---1---3----------------------------|

Riff B:
Both Guitars
|----------------------------------------------------|
|----------------------------------------------------|
|---------------4---3---5----------------------------|
|---------------2---1---5----------------------------|
|-30000000000---2---1---3----------------------------|

Riff C:
Both Guitars
|----------------------------------------------------|
|----------------------------------------------------|
|---------------4---3--------------------------------|
|---------------2---1--------------------------------|
|-30000000000---2---1--------------------------------|

Riff D:
Both Guitars
|----------|
|----------|
|-3-3-3-5-|
|-1-1-1-5-|
|-1-1-1-3-|

Riff E:
Both Guitars
|--------------------------------------------- --------|
|---------------------------------------------- -------|
|---------------4-3-5---------------------------------|
|---------------2-1-5---------------------------------|
|-33333333333---2-1-3---------------------------------|

Riff F: Both
|---|
|---|
|-5-|
|-5-|
|-3-|

Song Structure:
Riff A x4
Rifff B x5
Riff C x1
Riff D x4
Riff B x3
Riff C x1
Riff D x4
Riff A x4
Riff E x4
Riff D x4
Riff E x4
Riff B x4
Riff F x1 end abruptly




Ваше мнение



Капча