Artist: Nada Surf
Song: Inside of love

Tuning: Standard (EADGBe)

Intro:
A D
e|----------------------------|
B|-----3--2----------3-2------|
G|-----2--2—(x8)-----2-2-(x8)-|
D|-----2--2----------0-0------|
A|-----0--0-------------------|
E|----------------------------|
*repeat-A D A D A D...

1st Verse:
A D
e|-----------------------------|
B|-----3--2----------3--2------|
G|-----2--2—(x8)-----2--2-(x8)-|
D|-----2--2----------0--0------|
A|-----0--0--------------------|
E|-----------------------------|
*repeat-A D A D A D...

1st Chorus:
A E “inside of love…” F#m Bm D
e|-----0---0-------0-0-0-0-0-0-0-0-----2------2-----2--------------|
B|-----2---0-------0-0-0-0-0-0-0-0-----2------3-----3--------------|
G|-----2---1-------1-1-1-1-1-1-1-1-----2------4-----2--------------|
D|-----2---2-------2-2-2-2-3-3-3-3-----4------4-----0--------------|
A|-----0---2-------2-2-2-2-2-2-2-2-----4------2--------------------|
E|-------------------------------------2------2--------------------|

2nd Verse:
A D E (2x) F#m (x2) D
e|-------------------------------------------------------------------------|
B|------3--2-----------3--2-----------10-----9----------12-----10-------7--|
G|------2--2-(x8)------2--2-(x8)------9—(x3)-9-(x5)-----9—(x3)-9—(x5)---7--|
D|------2--2-----------0--0-----------9------9----------11-----11-------7--|
A|------0--0--------------------------7------7----------9------9--------5--|
E|-------------------------------------------------------------------------|
*pattern-A D A D A E F#m D

2nd Chorus:
A E “inside of love…” F#m Bm D
e|-----0---0-------0-0-0-0-0-0-0-0-----2------2-----2--------------|
B|-----2---0-------0-0-0-0-0-0-0-0-----2------3-----3--------------|
G|-----2---1-------1-1-1-1-1-1-1-1-----2------4-----2--------------|
D|-----2---2-------2-2-2-2-3-3-3-3-----4------4-----0--------------|
A|-----0---2-------2-2-2-2-2-2-2-2-----4------2--------------------|
E|-------------------------------------2---------------------------|

3rd Chorus:
A E Bm F#m D
e|-----0---0----2-------2-----2--------------|
B|-----2---0----3-------2-----3--------------|
G|-----2---1----4-------2-----2--------------|
D|-----2---2----4-------4-----0--------------|
A|-----0---2----2-------4--------------------|
E|----------------------2--------------------|

Bridge:

e|------2-0----5-9-5-4------2-0----5-9-5-4--4-4-2-2--|
B|--2-3-2-2-2--7-7-7-5--2-3-2-2-2--7-7-7-7--3-2-3-3--|
G|--2-2-----2--6-6-6-4--2-2-----2--6-6-6-4--2-2-2-2--|
D|------------------------------------------------0--|
A|------------------------------------------------0--|
E|---------------------------------------------------|

..im on the outside of love...
A E Bm F#m D
e|-----0---0----2-------2-----2--------------|
B|-----2---0----3-------2-----3--------------|
G|-----2---1----4-------2-----2--------------| (x2)
D|-----2---2----4-------4-----0--------------|
A|-----0---2----2-------4--------------------|
E|----------------------2--------------------|

4th Chorus:
A E “inside of love…” F#m Bm D
e|-----0---0-------0-0-0-0-0-0-0-0-----2------2-----2--------------|
B|-----2---0-------0-0-0-0-0-0-0-0-----2------3-----3--------------|
G|-----2---1-------1-1-1-1-1-1-1-1-----2------4-----2--------------|
D|-----2---2-------2-2-2-2-3-3-3-3-----4------4-----0--------------|
A|-----0---2-------2-2-2-2-2-2-2-2-----4------2--------------------|
E|-------------------------------------2---------------------------|

5th Chorus:
A E Bm F#m D
e|-----0---0----2-------2-----2--------------|
B|-----2---0----3-------2-----3--------------|
G|-----2---1----4-------2-----2--------------|
D|-----2---2----4-------4-----0--------------|
A|-----0---2----2-------4--------------------|
E|----------------------2--------------------|

…I just had a bad night…
D A
e|--------------------------------------|
B|-----0-2----------0-0-----------------|
G|-----2-2-(x8)-----1-2-(x8)------------|
D|-----0-0----------0-0-----------------|
A|--------------------------------------|
E|--------------------------------------|

End:
A
e|--0--|
B|--2--|
G|--2--|
D|--2--|
A|--0--|
E|-----|

Lyrics:

watching terrible tv
it kills all thought
getting spacier than
an astronaut
making out with people
i hardly know or like
i can’t believe what i do
late at night
i wanna know what it’s like
on the inside of love
i’m standing at the gates
i see the beauty above
only when we get to see
the aerial view
will the patterns show
we’ll know what to do
i know the last page so well
i can’t see the first
so i just don’t start
it’s getting worse
(chorus)
i can’t find my way in
i try again and again
i’m on the outside of love
always under or above
must be a different view
to be a me with a you
of course i’ll be alright
i just had a bad night




Ваше мнение



Капча