---------------------------------------------------------------------------------
Fruit Fly- Nada Surf
---------------------------------------------------------------------------------
Tabbed by: Renegade
Email: [email protected]

Tuning: Standard

e|-----------------------------------------------------------------------|
B|-----------------------------------------------------------------------|
G|----------------------------------------------------------1------------|
D|----------1---1---1----2----------------1---1----1---------------------|
A|---2------------------------------2------------------------------------|
E|0----0------------------------0-----0----------------------------------|




Ваше мнение



Капча