This is my first tab so bear with me.
It is only the chorus so just play it
as it sounds.........ENJOY!!!!!
----------------------|
----------------------|
-----7---7-------5-7--|
-----7---7-------5-7--|
-----5---5-------3-5--|
----------------------|
----------------------|
----------------------|
-----7---7-------5-7--|
-----7---7-------5-7--|
-----5---5-------3-5--|
----------------------|
----------------------|
----------------------|
----------------5-----|
-----7--6--5----5-----|
-----7--6--5----3-----|
-----5--4--3----------|
----------------------|
----------------------|
-----7---7-------5-7--|
-----7---7-------5-7--|
-----5---5-------3-5--|
----------------------|
----------------------|
----------------------|
-----7---7-------5-7--|
-----7---7-------5-7--|
-----5---5-------3-5--|
----------------------|
----------------------|
----------------------|
-------------7--------|
-----7-7-7---7--------|
-----7-7-7---5--------|
-----5-5-5------------|
CONTACT ME at [email protected]




Ваше мнение



Капча