Intro

e|----4---4---4---4--------------------|
B|-------------------------------------|
G|----5---5---5---5--------------------|
D|-------------------------------------|
A|-------------------------------------|
E|-------------------------------------|
repeat till chorus
You gotta listen to the song to get where the rest marks are,cuz i can't
write rest signs on the computer

Chorus

e|-------------------------------------|
B|-------1-3---3---3-------------------|
G|---1--------------------------------|
D|-------------------------------------|
A|-------------------------------------|
E|-------------------------------------|

e|-------------------------------------|
B|-------3-1---1---1-------------------|
G|---0---------------------------------|
D|-------------------------------------|
A|-------------------------------------|
E|-------------------------------------|
repeat till end of chorus

hope this helps!




Ваше мнение



Капча