Intro/Verse

E|-----------------------------------------
B|-----------------------------------------
G|-----------------------------------------
D|-----------------------------------------
A|-----------------------------------------
E|2-3-2-2--2-2-2-2-2-----------------------

Chorus

E|-----------------------------------------
B|-----------------------------------------
G|-----------------------------------------
D|4-5-4-4--4-4-4-4-4-----------------------
A|4-5-4-4--4-4-4-4-4-----------------------
E|2-3-2-2--2-2-2-2-2-----------------------

After Chorus Dealy With Wah Wah

E|-----------------------------------------
B|-----------------------------------------
G|13-13-12-12-12---------------------------
D|-----------------------------------------
A|-----------------------------------------
E|-----------------------------------------




Ваше мнение



Капча