Hey this if my first tab and even though it took me just today to do it, I'm pretty sure
it's right. It is in basic e-a-d-g-b-e tuning and all u have to remember is to play the
parts as needed. Have fun.
late
Here's the opening bass line
|-------|0-0-1-1-1-1---------------------|3-3-5-5-5-5-------------------|
|-------|--------------------------------|------------------------------|
|-------|--------------------------------|------------------------------|
|-------|--------------------------------|------------------------------|
|-------|--------------------------------|------------------------------|
|-------|--------------------------------|-------------------------------

Then the electric comes in with the chords
|-------|0-0-1-1-1-1---------------------|3-3-5-5-5-5-------------------|
|-------|2-2-3-3-3-3---------------------|5-5-7-7-7-7-------------------|
|-------|2-2-3-3-3-3---------------------|5-5-7-7-7-7-------------------|
|-------|--------------------------------|------------------------------|
|-------|--------------------------------|------------------------------|
|-------|--------------------------------|------------------------------|
Then the electric part after the piano kicks in
|-------|17b-------17b------17b------17b-----|------------------------------|
|-------|-----19--------19-------19-------21-|------------------------------|
|-------|------------------------------------|------------------------------|
|-------|------------------------------------|------------------------------|
|-------|------------------------------------|------------------------------|
|-------|------------------------------------|------------------------------|
And the chorus goes a lil sumin like dis
x x x x x x x
|-------|7p3-7p3-7p3-7-7-7-7p3-----------|7p3-7p3-7p3-7-7-7-7-8-7-------|
|-------|--------------------------------|------------------------------|
|-------|--------------------------------|------------------------------|
|-------|--------------------------------|------------------------------|
|-------|--------------------------------|------------------------------|
|-------|--------------------------------|------------------------------|
Solo
|-------|----------2h3/8~~--8h9-8h9--8-4-6~~-|-4-6-3~----------------------|
|-/4~~~|4-3-2-2~~----------------------------|--------5~--1~~--------------|
|-------|------------------------------------|-----------------------------|
|-------|------------------------------------|-----------------------------|
|-------|------------------------------------|-----------------------------|
|-------|------------------------------------|-----------------------------|




Ваше мнение



Капча