g-------------------------------------------------------------------------|
d-3-3-3-3-3---3---5---5---3---3---5---5---3---3---5---5---3---3---5---5---|
a-------------------------------------------------------------------------|
e-------------------------------------------------------------------------|
This is played through most of the song until 2:14 and 3:10 at those times this
is played:
g-----4-6-4-----7-9-7-------10-12-10------5-7-5---------------------------|
d---4---------7----------10-------------5---------------------------------|
a-2---------5----------8--------------3-----------------------------------|
e-------------------------------------------------------------------------|
Repeat this line until the section of the song is over
tab by spencer graham
song by nerd/neptunes




Ваше мнение



Капча