Mylene Farmer
-------------

Laisse Le Vent Emporter Tout
/Farmer-Boutonnat/
Strophe 1: [Acoustic guitar; my version of fingerpicking below]
C G
Mais tout ce qui s'est passe
Am
Glisse a cote
F C
Comme l'eau sur les joues
G
Rester comme ca attache
Am Dm
Quand l'autre a quitte
C G
Et tous ce mots qu'on a dit
Am
Mot qu'on a fuit
F C
Ou sont ils alles
G
Rester comme ca attache
Am Dm
Ne peut rien changer
G
Alors va
Chorus:
Cm D# F
Je laisse le vent emporter tout
Cm D# F
Laisse le vent prendre soin de tout
Cm D# F
Je laisse le vent emporter tout
Cm D# F
Laisse le vent prendre soin de tout
Strophe 2(same as Strophe 1):
Je t'ai reve homme sans pied
Dieu ou neve
Ou comme un bruit doux
La j'irai bien te chercher
J'ai tellement change
Mais tout ce qui c'est passe
Glisse a cote
Comme l'eau sur les joues
Quand je t'ai pris par la main
C'etait un matin
Bien
Chorus:
Je laisse le vent emporter tout
Laisse le vent prendre soin de tout
Je laisse le vent emporter tout
Laisse le vent prendre soin de nous
Solo:
[Acoustic guitar]
Accompaniment: Bbm
e-------------------------------------|
B---------------------------2---------|
G-1/3--------1-3-1-3----3-1---3-------|
D-1/3----1-3--------------------------|
A------4------------------------------|
E-------------------------------------|

e-------------------------------------|
B---------------------------2/4-2-----|
G-1/3--------1-3-1-3----3-1-------1-3-|
D-1/3----1-3--------------------------|
A------4------------------------------|
E-------------------------------------|

e--------6---4/6-4---6----9--6--------|
B------6-----------6------------------|
G----6--------------------------------|
D-/8----------------------------------|
A-------------------------------------|
E-------------------------------------|

e--------6----9/11-9-6----6-----------|
B----6-9---------------9--------------|
G-/8----------------------------------|
D-------------------------------------|
A-------------------------------------|
E-------------------------------------|
Chorus. At the end: С5.
OK, that's my version of fingerpicking:
C G/B Am F
e---------0--------3-----0---------3-----0-----------------1-------|
B(1)----1---1--------0-----0---0-----1-----1---1---------1---1-----|
G-----0-------0--------0-----0---0-----2-----2---2-----2-------2---|
D---2----------(2)-----------------------------------3-----------3-|
A-3----------------2---------------0-------------------------------|
E--------------------------------------------------1---------------|

C G/B Am Dm
e---------0--------3-----0-----------------0-------------1-----1-----|
B(1)----1---1--------0-----0---0---------1---1---------3---3-----3---|
G-----0-------0--------0-----0---0-----2-------2-----2-------2-----2-|
D---2----------(2)-------------------2-----------2-0-----------------|
A-3----------------2---------------0---------------------------------|
E--------------------------------------------------------------------|
+ at the 2nd time (before Chorus):
Dm G
e-3-----1-----1-----| |-3-----3-----3-----|
B---3-----3-----3---| |---3-----3-----3---|
G-----2-----2-----2-| |-----0-----0-----0-|
D-0-----------------| |-------------------|
A-------------------| |-------------------|
E-------------------| |-3-----------------|
These notes played |Chorus:
by synth on the |
album | Cm D# F
e------------------|-------3--------------------------------------|
B----------1----3--|-4-------4-----------8---------------10-------|
G------------------|-----5-----5-------8---8----------10----10----|
D------------------|---5---------5---8-------8-----10----------10-|
A----------3----5--|-3-------------6-----------6-8----------------|
E------------------|----------------------------------------------|
F
e--------------------| Of course, I don't play the same way every
B---------10---------| time (especially Dm). You can do your own
G------10----10------| version of this or transcribe original.
D---10----------10---| (I don't have enough ear's sensitivity
A-8----------------8-| and patience :)
E--------------------|
_________________________
aleister, Irkutsk, Russia
[email protected]




Ваше мнение



Капча