Mylene Farmer
-------------
A quoi je sers...
/Farmer-Boutonnat/
Intro x2 times:
[Acoustic guitar]
Dm F
e--5-3----5-3-----5-3--5-3--|------1-----1--------1-------|
B------3-----3--------3---5-|--1-3---1-3------1-3---1-3---|
G---------------------------|-----------------------------|
D---------------------------|---------------------------3-|
A---------------------------|-----------------------------|
E---------------------------|-----------------------------|

Bbm G# D#m F
Poussiere vivante, je cherche en vain ma voie lactee
Bbm G# D#m F
Dans ma tourmente, je n'ai trouve qu'un mausolee
Bbm G# D#m F
Et je divague J'ai peur du vide
Bbm G# D#m F
Je tourne des pages Mais... des pages vides
Bbm G# D#m F
Poussiere errante, je n'ai pas su me diriger
Bbm G# D#m F
Chaque heure demande pour qui, pour quoi, se redresser
Bbm G# D#m F
Et je divague J'ai peur du vide
Bbm G# D#m F
Pourquoi ces larmes Dis... a quoi bon vivre...
Chorus:
Dm G
Mais mon Dieu de quoi j'ai l'air
Em F
Je sers a rien du tout
Dm G
Et qui peut dire dans cet enfer
Em F
Ce qu'on attend de nous, j'avoue
Dm G
Ne plus savoir a quoi je sers
Em F
Sans doute a rien du tout
Dm G
A present je peux ma taire
Em A
Si tout devient degout
Poussiere brulante, la fievre a eu raison de moi
Je ris sans rire, je vis, je fais n'importe quoi
Et je divague
J'ai peur du vide
Je tourne des pages
Mais... des pages vides
Chorus.
Melodic piece: Intro x3 times
4-th time:
Dm F
e--5-3----5-3-----5-3--5-3--|---5-3-5--|
B------3-----3--------3---5-|----------|
G---------------------------|----------|
D---------------------------|----------|
A---------------------------|----------|
E---------------------------|----------|
Chorus.
_________________________
aleister, Irkutsk, Russia
[email protected]




Ваше мнение



Капча