My Dying Bride: Your Shameful Heaven
Tune down 1.5 steps(C#). The timing is easy to figure out.
Riff 1 (x6)
------------------------------------------------------------
------------------------------------------------------------
------------------------------------------------------------
2------------3------------2---------------------------------
2------------3------------2---------------------------------
0------------1------------0-----------1-4-3-4-3----4-3-4-1--
Riff 2 (x2)
Guitar 1
-------------------------------------------------------------------
-------------------------------------------------------------------
-------------------------------------------------------------------
---5---------------------------------5------------------3----------
------5--6-------3--------5-------------5--6-------3-------5-------
3-------------5--------5-------6--3-------------5---------------6--
Guitar 2
---------------------------------------------------------------------
---------------------------------------------------------------------
--------------------5---------------------------------5-----5--7-----
5--5--7--8----7--8-----5--7--8--7--5--5--7--5----5--7-----7--------7-
---------------------------------------------------------------------
---------------------------------------------------------------------
Riff 3 (x6)
-----------------------------------------------------------
-----------------------------------------------------------
--------------------------------------------------------7--
2---------------------3--5--2---------------------5--6--7--
2---------------------3--5--2---------------------5--6--5--
0-0-0-0-0-0-0-0-0-0-0-1--3--0-0-0-0-0-0-0-0-0-0-0-3--4-----

(1st, 3rd, & 5th ending to Riff 3)
------------------------------------------
------------------------------------------
------------------------------------------
7----5--7--5--7(ph)-----------------------
-----------------------3---2---0----------
----------------------------------3----2--
(2nd, 4th, & 6th ending to Riff 3)
----------------------------------------------------
----------------------------------------------------
----------------------------------------------------
7-8-7-10-8-7----7-8-7-8-10--------------------------
-------------10------------------3---2---0----------
--------------------------------------------3----2--
Riff 1 (x6)
Riff 4 (Intro)
----------------------------
----------------------------
----------------------------
7-8-7-10--8--7--8--7----6---
----------------------------
----------------------------
Riff 4 (x10)
-------------------------------------------
-------------------------------------------
-------------------------------------------
7-----7-----------------------7----6----5--
7-----7-----------------------7----6----5--
5-----5-----5-6-5-8--6--5--6--5----4----3--
2nd Guitar (Riff 4(x's 4-8))
--------------------------------------------
--------------------------------------------
--------------------------------------------
7----7-8-7--7-8-7-10-8--7--8--7----6----5(ph)
--------------------------------------------
--------------------------------------------
Riff 2 (x2)
Riff 3 (x6 w/endings)
Ending 6th time
----------------------------
----------------------------
----------------------------
----------------------4--2--
3---2---0-------------4--2--
-----------3----------2--0--




Ваше мнение



Капча