Two Winters Only

I've only tabbed the opening quiet section so far:

Guitar 1:
e--------------------------------------
b--------------------------------------
g--------------------------------------
d------11----9---------11--------------
a---11----11---11---11----11-9-11-12-11
e-9---------------9--------------------

This riff is repeated and then:

e---------------------------------
b---------------------------------
g---------------------------------
d-----7-----7---------7-----7-----
a---7---7-----7-----7---7-----7---
e-5-------5-----5-5-------5-----5-

|--------------------------------
|--------------------------------
|--------------------------------
|----9-----9---------9-----9-----
|--9---9-----9-----9---9-----9---
|-7-------7-----7-7-------7-----7

Then go back and just keep on repeating.
Listen to see where guitar 2 comes in. It basically plays this or a variation of this:

e-------------------------
b-------------------------
g-------------------------
d-11-11-13-14-16-14-13-11-
a-------------------------
e-------------------------

|-------------------------------------------------------------
|-------------------------------------------------------------
|-------------------------------------------------------------
|-11-11-13-14-13-1314-16-14-13-13-14-16-14-13-11-14-13-14-13-7
|-------------------------------------------------------------
|-------------------------------------------------------------

e-----------------------------------------
b-----------------------------------------
g-9-11-9-8-6------------------------------
d------------7-6-4-2-4-2-1/21-1-2-4-2-1--
a----------------------------------------4
e-----------------------------------------




Ваше мнение



Капча