Date: Fri, 6 Dec 1996 20:35:07 GMT+01DST
From: "Holka Pavel - MO,,student,UID=17361"
Subject: TAB : MY DYING BRIDE - TO WINTERS ONLY
To winters only - My Dying Bride
Tabbed by Pavel Holka
use capo on the 3rd fret (both guitars)
INTRO:
Riff1A
Guitar1
-----------------------------------|
-----------------------------------|
----------0------------------------|
------7--------------7-------------|
----7---7------7---7---7-5-7-8-7---|
--5--------------5-----------------|
end Riff1A Riff1B end Riff1B
-----------------------------------|---------------------------------|
-----------------------------------|---------------------------------|
----------0------------------------|---------------------------------|
------7--------------7-------------|----3------3---------3-----3-----|
----7---7------7---7---7-5-7-8-7\3-|--3---3------3-----3---3-----3---|
--5--------------5-----------------|1--------1-----1-1-------1-----1-|
Riff1C end Riff1C
----------------------------------------|
----------------------------------------|
----------------------------------------|
-----5-----5---------5-----5------------|
---5---5-----5-----5---5-----5----------|
-3-------3-----3-3-------3-----3--------|
This guitar1 part is used along the verses
NOTICE!!! I didn`t bother myself with timing
VERSES:
1)
w/Riff1A end Riff1A
Guitar1
|-----------------------------------|----------------------------------|
|-----------------------------------|----------------------------------|
|---------0-------------------------|----------------------------------|
|-----7------------------7----------|----------------------------------|
|---7---7----------7---7---7-5-7-8-7|-etc.-----------------------------|
|-5------------------5--------------|----------------------------------|
|
|Guitar2
|-----------------------------------|-----------------------------------|
|-----------------------------------|--------------------3--------------|
|--------------2-2--2-4-5-5/7--5-4-2|2-4-5-4--5-4-5-4-4-5-5-4-2-5-4-5-4-|
|-2------------2-2------------------|-----------------------------------|
|-0---------0--0-0------------------|-----------------------------------|
|-0---------------------------------|-----------------------------------|
What is it
Guitar1
w/Riff1B end Riff1B w/Riff1C end Riff1C
Guitar2:
|-----------------------------------|-----------------------------------|
|-----------------------------------|-----------------------------------|
|-----------------------------------|-----------------------------------|
|--3------3h5-3---3----3/5----3--2--|-0---------------------------------|
|-----------------------------------|-------5--3---5--3--2--2-3-5--3-2--|
|-----------------------------------|-----------------------------------|

2)
Guitar1:
w/Riff1A end Riff1A
Guitar2:
|-----------------------------------|-----------------------------------|
|-----------------------------------|--------------------3--------------|
|--------------2-2--2-4-5-5/7--5-4-2|2-4-5-4--5-4-5-4-4-5-5-4-2-5-4-5-4-|
|-2------------2-2------------------|-----------------------------------|
|-0---------0--0-0------------------|-----------------------------------|
|-0---------------------------------|-----------------------------------|
And give up
Guitar1 w/Riff1B end Riff1B w/Riff1C end Riff1C
Guitar2:
|-----------------------------------|-----------------------------------|
|-----------------------------------|-----------------------------------|
|------------5/7--5---4---2---------|-----------------------------------|
|--3------3-5-----------------5--3--|-0---------------------------------|
|-----------------------------------|----5--3--5--3--2--2-3-2--2-3-5-3-2|
|-----------------------------------|-----------------------------------|

3)
Guitar1
w/Riff1A end Riff1A
Guitar2
|-----------------------------------|-----------------------------------|
|-----------------------------------|-----------3--------3--------------|
|--------------2-2-2-4-5-5/7-5-4-5-2|2-4-5-4-4h5--5-4-4-5-5-4-2-5-4-5-4-|
|-2------------2-2------------------|-----------------------------------|
|-0---------0--0-0------------------|-----------------------------------|
|-0---------------------------------|-----------------------------------|
Guitar1
w/Riff1B end Riff1B w/Riff1C end Riff1C
Guitar2:
|-----------------------------------|-----------------------------------|
|-----------------------------------|-----------------------------------|
|---------------5-------------------|-----------------------------------|
|--3------3h5--3-------3/5----3--2--|-0---------------------------------|
|-----------------------------------|-------5--3---5--3--2--2-3-5--3-2--|
|-----------------------------------|-----------------------------------|
4
Guitar1
w/Riff1A end Riff1A
Guitar2
|-----------------------------------|-----------------------------------|
|-----------------------------------|--------------------3--------------|
|--------------2-2--2-4-5-5/7--5-4-2|2-4-5-4--5-4-5-4-4-5-5-4-2-5-4-5-4-|
|-2------------2-2------------------|-----------------------------------|
|-0---------0--0-0------------------|-----------------------------------|
|-0---------------------------------|-----------------------------------|
Guitar1
w/Riff1B end Riff1B w/Riff1C end Riff1C
Guitar2:
|-----------------------------------|-----------------------------------|
|-----------------------------------|-----------------------------------|
|-----------------------------------|-----------------------------------|
|--3------3h5--3-------3/5----3--2--|-0---------------------------------|
|-----------------------------------|-------5--3---5--3--2--2-3-5--3-2--|
|-----------------------------------|-----------------------------------|
5
Guitar1
w/Riff1A end Riff1A
Guitar2
|-----------------------------------|-----------------------------------|
|-----------------------------------|-----------3-----------------------|
|--------------2-2-2-4-5-5/7-5-4-5-2|2-4-5-4-4h5--5-4-4-5-----/7---5----|
|-2------------2-2------------------|---------------------3-------------|
|-0---------0--0-0------------------|-----------------------------------|
|-0---------------------------------|-----------------------------------|
Guitar1
w/Riff1B end Riff1B w/Riff1C end Riff1C
Guitar2:
|-----------------------------------|-----------------------------------|
|-----------------------------------|-----------------------------------|
|------------------5----------------|-----------------------------------|
|--3------3/5\3---3----3/5----3--2--|-0---------------------------------|
|-----------------------------------|----5--3--5--3--2-3-2--2-3-5--3-2--|
|-----------------------------------|-----------------------------------|
6
Guitar1:
w/Riff1A end Riff1A
Guitar2:
|-----------------------------------|-----------------------------------|
|-----------------------------------|--------------------3--------------|
|--------------2-2--2-4-5-5/7--5-4-2|2-4-5-4--5-4-5-4-4-5-5-4-2-5-4-5-4-|
|-2------------2-2------------------|-----------------------------------|
|-0---------0--0-0------------------|-----------------------------------|
|-0---------------------------------|-----------------------------------|
And give up
Guitar1 w/Riff1B end Riff1B w/Riff1C end Riff1C
Guitar2:
|-----------------------------------|-----------------------------------|
|-----------------------------------|-----------------------------------|
|------------5/7--5---4---2---------|-----------------------------------|
|--3------3-5-----------------5--3--|-0---------------------------------|
|-----------------------------------|----5--3--5--3--2--2-3-2--2-3-5-3-2|
|-----------------------------------|-----------------------------------|
7
w/Riff1A end Riff1A
Guitar2
|-----------------------------------|-----------------------------------|
|-----------------------------------|-----------3-----------------------|
|--------------2-2--2-4-5-5/7--5-4-2|2-4-5-4-4h5--5-4-4-5-----/7---5----|
|-2------------2-2------------------|---------------------3-------------|
|-0---------0--0-0------------------|-----------------------------------|
|-0---------------------------------|-----------------------------------|
Guitar1
w/Riff1B end Riff1B w/Riff1C end Riff1C
Guitar2:
|-----------------------------------|-----------------------------------|
|-----------------------------------|-----------------------------------|
|------------5/7--5---4---2---------|-----------------------------------|
|--3------3-5-----------------5--3--|-0---------------------------------|
|-----------------------------------|------5--3--5--3--2----2-3-5--3-2--|
|-----------------------------------|-----------------------------------|
let ring
Guitar1
----------------|
----------------|
----------------|
----------------|
----------------|
-5--------------|
Guitar2
let ring
----------------|
----------------|
----------------|
-2--------------|
-0--------------|
-0--------------|
Now drums and starting chorus
yess
This is hard for me to figure it out, cause I try to do it on my
acoustic guitar
Verses after chorus is the same as before
Corrections,comments and CHORUS!! to Pavel Holka
Holkoun or Holkounek on IRC
My version of Chorus coming soon




Ваше мнение



Капча