Tabbed by:THE SANDMAN
Email:[email protected]
Tuning: C# F# B E G# C#
PART I - play twice
|-2-----2-----2-----2-----5-----3-----2-----3------
|---0-----0-----0-----0-----0-----0-----0-----0----
|-----0-----0-----0-----0-----0-----0-----0-----0--
|--------------------------------------------------
|--------------------------------------------------
|--------------------------------------------------
|-2-----2-----2-----2-----2-----2-----2-----2------
|---2-----2-----2-----2-----2-----2-----2-----2----
|-----3-----3-----3-----3-----3-----3-----3-----3--
|--------------------------------------------------
|--------------------------------------------------
|--------------------------------------------------
PART II - play twice
|-5-----5-----3-----3-----2-----2-----5-----3------
|---0-----0-----0-----0-----0-----0-----0-----0----
|-----0-----0-----0-----0-----0-----0-----0-----0--
|--------------------------------------------------
|--------------------------------------------------
|--------------------------------------------------
|-2-----2-----2-----2-----2-----2-----2-----2------
|---2-----2-----2-----2-----2-----2-----2-----2----
|-----2-----2-----2-----2-----2-----2-----2-----2--
|--------------------------------------------------
|--------------------------------------------------
|--------------------------------------------------
PART III - play twice
|-3-----3-----5-----5-----7-----7-----9-----10------
|---0-----0-----0-----0-----0-----0-----0------0----
|-----0-----0-----0-----0-----0-----0-----0------0--
|---------------------------------------------------
|---------------------------------------------------
|---------------------------------------------------
|-12-----12-----12-----12-----10-----10-----10-----10------
|----0------0------0------0------0------0------0------0----
|------0------0------0------0------0------0------0------0--
|----------------------------------------------------------
|----------------------------------------------------------
|----------------------------------------------------------
PART IV - play 4 times
|-12-----12-----10-----10-----9-----9-----7-----5------
|----0------0------0------0-----0-----0-----0-----0----
|------0------0------0------0-----0-----0-----0-----0--
|------------------------------------------------------
|------------------------------------------------------
|------------------------------------------------------
FILL - play once
|-3-----3-----3-----3-----3-----3-----3-----3------
|---0-----0-----0-----0-----0-----0-----0-----0----
|-----0-----0-----0-----0-----0-----0-----0-----0--
|--------------------------------------------------
|--------------------------------------------------
|--------------------------------------------------
this song is easy have fun




Ваше мнение



Капча