My Dying Bride: The Sexuality of Bereavement
Tune Guitar 1 1/2 steps to C#
Rhy Fig 1
[--------------------------------------------------------]
[--------------------------------------------------------]
[--------------------------------------------------------]
[--------------------------------------------------------]
[7-0-0-9-9-5--7--7-7-8-7-5-3--7-0-0-9-9-5--7--7-5-4-2-2-3]
[5-8-8-7-7-3--5--5------------5-8-8-7-7-3--5--5-3-2-0----]
Rhy Fig 2
[------------------------------------------------------------------------
[------------------------------------------------------------------------
[------------------------------------------------------------------------
[---7-5-7--7-8-7--7-8-5--------7-5-7--7-8-7--7-8-5-----------------------
[5----------------------8-3-5----------------------8-7-8-9-6-3-0--0-3-1--
[------------------------------------------------------------------------
--------------]
--------------] . = palm mute
--------------] h = hammer on
--------------] in Rhy Fig 1 0 - 10th fret
8-9-6-3-0--0-3] 8
--------------]
Rhy Fig 3
[--------------------------]
[--------------------------]
[--------------------------]
[---h----h-------6--6-5-4-3]
[2-3`2--6`5-7--7-4--4-3-2-1]
[0----------5--5-4--4-3-2-1]
. . . . .
Riff A(the cool sad part)
[-----------------------------------------------------]
[-----------------------------------------------------]
[-----------------------------------------------------]
[-----------------------------------------------7--5--]
[-----------------------8-7-5-7--10-8-7--5-8-7--5--3--]
[5-7-8--8-10-8--7-5-7-8-------------------------------]
Sequence:
Violin intro
Rhy Fig 1 - 6x
Rhy Fig 2 - 4x
Rhy Fig 3 - 6x
Riff A - 2x
Rhy Fig 1 - 4x
Rhy Fig 2 - 2x




Ваше мнение



Капча