#----------------------------------PLEASE NOTE---------------------------------#
#This file is the author's own work and represents their interpretation of the #
#song. You may only use this file for private study, scholarship, or research. #
#------------------------------------------------------------------------------#
The Crown Of Sympathy / My Dying Bride
Transcribed by Maekawa Tomomi & Suzuki Tetunori
Tuning : C#,G#,E,B,F,C#
---------------------------------------
---------------------------------------
--------------2---2-2-2-2--------------
----5-4-2---5-------------5-3----------
-2-------------------------------------
-0-------------------------------------
---------------------------------------
---------------------------------------
------------2-5---5-5-5-5-4-2----------
----5-4-2------------------------------
-2-------------------------------------
-0-------------------------------------
---------------------------------------
---------------------------------------
-------------2---2-2-2-2-2-------------
----5-4-2--5---------------5-3---------
-2-------------------------------------
-0-------------------------------------
---------------------------------------
---------------------------------------
---------------------------------------
---------------------------------------
--2----2----2----2----2----2----2----2-
--0----0----0----0----0----0----0----0-
---------------------------------------
---------------------------------------
---------------------------------------
---------------------------------------
--2----2----2----2----2----2--2-2-2-24-
--0----0----0----0----0----0--0-0-0-02-
---------------------------------------
---------------------------------------
---------------------------------------
---------------------------------------
-54-4-4-4-4-4-4-24-54-4-4-4-4-4-4-24---
-32-2-2-2-2-2-5-02-32-2-2-2-2-2-2-02---
---------------------------------------
---------------------------------------
---------------------------------------
---------------------------------------
-54-4-4-2-------24-54-4-4-4-------24---
-32-2-2-0-------02-32-2-2-2-------02---
---------------------------------------
---------------------------------------
---------------------------------------
---------------------------------------
-54-4-4-4-4-4-4-24-54-4-4-4-4-4-4-24---
-32-2-2-2-2-2-5-02-32-2-2-2-2-2-2-02---
---------------------------------------
---------------------------------------
----------------------2----------------
---------2------24-5-----5---4--2------
-54-4-4---------------------------24---
-32-2-2---------------------------02---
---------------------------------------
---------------------------------------
---------------------------------------
---------------------------------------
-54-4-4-4-4-4-4-24-54-4-4-4-4-4-4-24---
-32-2-2-2-2-2-5-02-32-2-2-2-2-2-2-02---
---------------------------------------
---------------------------------------
---------------------------------------
---------------------------------------
-54-4-4-2-------24-54-4-4-4-------24---
-32-2-2-0-------02-32-2-2-2-------02---
---------------------------------------
---------------------------------------
---------------------------------------
---------------------------------------
-54-4-4-4-4-4-4-24-54-4-4-4-4-4-4-24---
-32-2-2-2-2-2-5-02-32-2-2-2-2-2-2-02---
---------------------------------------
---------------------------------------
----------------------2----------------
---------2------24-5-----5---4--2------
-54-4-4--------------------------------
-32-2-2--------------------------------
---------------------------------------
---------------------------------------
------------2---5---5-5-5-5-4-2--------
----5-4-2------------------------------
-2-------------------------------------
-0-------------------------------------
---------------------------------------
---------------------------------------
----------------2---2-2-2-2------------
----5-4-2---5---------------5-3--------
-2-------------------------------------
-0-------------------------------------
-------------------------------------------------
-------------------------------------------------
----------3--323532--353------2-----2----23-2-5--
-5---5--5----------------4--45-54-45-5-5---------
-------------------------------------------------
-------------------------------------------------
-------------------------------------------------
-------------------------------------------------
-------2---3--323532--353------2-----2----23-2-5-
-5---5--5-5----------------4--45-54-45-5-5-------
-------------------------------------------------
-------------------------------------------------
-7------7-----8--7-8-10--7------7--8--------8----
----10----10----------------10-------------------
--------------------------------------10--10--10-
-------------------------------------------------
-------------------------------------------------
-------------------------------------------------
-------------------------------------------------
--------------------3--------------------5-------
--4--2-4--2--5--4-5------4--2-4--5--3--3----3----
-------------------------------------------------
-------------------------------------------------
-------------------------------------------------
Name:suzuki tetunori
e-mail: [email protected]




Ваше мнение



Капча