My Dying Bride - Sear Me
C# tuning, down 1 1/2 steps.
Bass intro
|-----|-----|----|---------
|-----|-----|----|---------
|-----|-0---|----|-----0---
|--0--|---2-|--0-|--2------
Riff A 6 Times
|-------------------------|------------------------
|-------------------------|------------------------
|-------------------------|------------------------
|-------------------------|-7-----7----------------
|-7---10-9-10-7---10-9-10-|----10--10--9---10-9-10-
|-------------------------|------------------------


Riff B
|------------|-----------|----------|-------------- Guitar 2 plays riff B 6 Times
|------------|-----------|----------|-------------- while guitar 1 plays riff A
|------------|-----------|----------|-------------- another 12 Times.
|-9-10-9-7-9-|--7-9-10-7-|----------|--------------
|------------|-----------|-7-----5--|--7------9----
|------------|-----------|----------|--------------

|-----|----------------------|---------------------|----------------------
|-----|----------------------|---------------------|----------------------
|-----|o---------------------|---------------------|----------------------
|-----|o---------------------|---------------------|----------------------
|-2---|----------------------|---------------------|----------------------
|-0---|--0000-0000-8888-7788-|-0000-0000-8888-7788-|-0000-0000-8888-7788--
4 Times
|-----------------------|-----------------------
|-----------------------|-----------------------
|----------------------o|-----------------------
|----------------------o|-----------------------
|-------------6666-5555-|------------8888-7777--
|--3333-3333------------|--5555-5555------------
|---------------------------------------------|Guitar one follow bottom numbers
|---------------------------------------------|Guitar two follow top numbers
|o-------------------------------------------o|
|o-----9-8-9--4--5-4-5--3--4-3-4--7--6-7-6---o|
|--5---7-6-7--2--3-2-3--1--2-1-2--5--4-5-4----|
|--3------------------------------------------|
|------------------------------------------------|
|------------------------------------------------|
|o----------------------------------------------o|
|o-------9989--3333-5545--3333-4434--7777-6676--o|
|--5555--7767--2222-3323--1111-2212--5555-4454---|
|--3333------------------------------------------|
6 Times
|---------------------------------------------|
|---------------------------------------------|
|o-------------------------------------------o|
|o-----9-8-9--4--5-4-5--3--4-3-4--7--6-7-6---o|
|--5---7-6-7--2--3-2-3--1--2-1-2--5--4-5-4----|
|--3------------------------------------------|
Twice
|------------------------------------------
|------------------------------------------
|------------------------------------------
|------------------------------------------
|------------------------------------------
|--3----(feedback)---1--(feedback)---------
4 Times
|-----------|------------------|
|-----------|------------------|
|o----------|-----------------o|
|o----------|-----------------o|
|------5----|----3-------------|
|---3-----6-|--5---3--7---4----|
Twice
|------------------------------------------
|------------------------------------------
|------------------------------------------
|------------------------------------------
|------------------------------------------
|--3----(feedback)---1--(feedback)---------
4 Times
|-----------|------------------|
|-----------|------------------|
|o----------|-----------------o|
|o----------|-----------------o|
|------5----|----3-------------|
|---3-----6-|--5---3--7---4----|

|-----------------------------------|----------------
|-----------------------------------|----------------
|o---------------------------------o|----------------
|o---------------------------------o|----------------
|-----------------------------------|----------------
|--3----(feedback)---1--(feedback)--|-3--(feedback)--
Spoken part
Riff A 6 Times
|-------------------------|------------------------
|-------------------------|------------------------
|-------------------------|------------------------
|-------------------------|-7-----7----------------
|-7---10-9-10-7---10-9-10-|----10--10--9---10-9-10-
|-------------------------|------------------------


Riff B
|------------|-----------|----------|-------------- Guitar 2 plays riff B 6 Times
|------------|-----------|----------|-------------- while guitar 1 plays riff A
|------------|-----------|----------|-------------- another 12 Times.
|-9-10-9-7-9-|--7-9-10-7-|----------|--------------
|------------|-----------|-7-----5--|--7------9----
|------------|-----------|----------|--------------
Slows down and ends on an E5 chord.




Ваше мнение



Капча