My Dying Bride: The Return of the Beautiful
x=palm mute
xx
D---------------------2---3
A------2-----22-------0---1
E------0-----00------------
A----3----5---8--7--7----3---5--1--0--0---------
E------------------------------------------3---1
xx
D---------------------2---3
A------2-----22-------0---1
E------0-----00------------

D----------------------7--6
A---2--5--4--2--3--1---5--4
E--------------------------
Played 1 time
D----4--5--7--8--4--5
A----2--3--5--6--2--3
First Guitar
D----5--4--7----------------------------5---4---7---8--
A--------------6---------------------------------------
Second Guitar
D-------------------4--5--7--8--4--5------------------4--5--7--8--4--5
A-------------------2--3--5--6--2--3------------------2--3--5--6--2--3
Both guitars (depresive part)
D-----------------------------8
A---5--------4-------7---7---
E----3-------2-------5--------
Aggresive part
xxx xxx
A--4--222--5--4--7--5--4--222
E--2--000--3--2--5--3--2--000
First Guitar
D--------8--7--5-----8--7---10
A----5-------------7------------
Second guitar
D--------8--7--5---------------
A----5-------------3------5---6
Ending riff before some noise.
A--2
E--0
The first death part(Iґm not shure if this is exactly right)
D---------0000---------------2222
A111111------1111000000-----0000
Second death part(Iґm not shure if this is exactly right)
A-----666655556666111111333311110000
E3333---------------------------------------------
Both guitars (depresive part)
D-----------------------------8
A---5--------4-------7---7---
E----3-------2-------5--------
Aggresive part(ending part)
xxx xxx
A--4--222--5--4--7--5--4--222
E--2--000--3--2--5--3--2--000




Ваше мнение



Капча