My Dying Bride: Apocalypse Woman

Tune down 1-1/2 step.
Iґve tabbed this one in three hours and without amplification, so I`m not
shure about the parts w/distorsion.

BASS INTRO:
E |--------------------------|
B |--------------------------| This is the only bass riff I`ve
F#|4-5-5-5-5--4-5--5--4-5-5-5| tabbed. Drums start after 2nd
C#|--------------------------| repeat of this, guitars after
the 10th.
VERSE RIFF:
C#|-----------1-------------------0-----|
G#|-----3---3---------------1---1-------|
E |---2---2---------------2---2---------|
B |-0-------------------0---------------|
F#|-------------------------------------|
C#|-------------------------------------|

In first version Aarons begins after the 2nd repeat of this. In other
versions just after the first.

PRE-CHORUS: 4 times
C#|-------------------------------------------------------------
G#|-------------------------------------------------------------
E |-------------------------------------------------------------
B |------------7--7--7--------------7--7--7-------------7--7--7-
F#|-7-7-7-7-7--5--5--5---7-7-7-7-7--5--5--5--7-7-7-7-7--5--5--5-
C#|-------------------------------------------------------------
. . . . . . . . . . . . . . . palm mute
C#|----------------|
G#|----------------|
E |----------------|
B |-5--5--8--8-----|
F#|-3--3--6--6--7--|
C#|-------------5--|

CHORUS: 2 times
C#|--------------------------------------|
G#|--------------------------------------|
E |o------------------------------------o|
B |o-9--9--7--7--7--7--5--5--8--8--10---o|
F#|--7--7--5--5--5--5--3--3--6--6--8-----|
C#|--------------------------------------|

C#|--------------------------------------|
G#|--------------------------------------|
E |--------------------------------------|
B |--9--9--7--7--7--7--5--5--8--8--10----|
F#|--7--7--5--5--5--5--3--3--6--6--8-----|
C#|--------------------------------------|

C#|--------------------------------------|
G#|--------------------------------------|
E |--------------------------------------|
B |--9--9--7--7--7--7--5--5--8--8--------|
F#|--7--7--5--5--5--5--3--3--6--6--7-----|
C#|--------------------------------5-----|

SOLO:
C#|-----------------------------------------------------------------
G#|-----10-8-10-10^-10-8-10--------------------10-8-10-10^-10-8-10--
E |-7------------------------7---8-----10---7-----------------------
B |-----------------------------------------------------------------
F#|-----------------------------------------------------------------
C#|-----------------------------------------------------------------

C#|-------------10---8--10--8-------------------10---8--10--8-------
G#|----8--10-11---------------8h10----------------------------8h10--
E |-7------------------------------7--8-----------------------------
B |--------------------------------------10--8----------------------
F#|-----------------------------------------------------------------
C#|-----------------------------------------------------------------

C#|--8---10---11---10----------------|
G#|---------------------8~~~~~~~-----|
E |----------------------------------|
B |----------------------------------|
F#|----------------------------------|
C#|----------------------------------|

BACKGROUND FOR SOLO:
C#|--------------------------------------------------------|
G#|--------------------------------------------------------|
E |--------------------------------------------------------|
B |-7---7-7---8---10--1010--8---7---7-7---8---12---10--8---|
F#|-5---5-5---6---8---8-8---6---5---5-5---6---10---8---6---|
C#|-5-------------8-------------5--------------------------|

Transcribed by Andrej Arnautov ([email protected])




Ваше мнение



Капча