My Dying Bride: All Swept Away
Riff 1 (x 4)
------------------------------------------------------------------
------------------------------------------------------------------
7--------8-------8--8--5-------7-------7--7--7-------8-------8--8-
7--------8-------8--8--5-------7-------7--7--7-------8-------8--8-
5--5-5-5-6-6-6-6-6--6--3-3-3-3-5-5-5-5-5--5--5-5-5-5-6-6-6-6-6--6-
------------------------------------------------------------------
----------------------------------
----------------------------------
----------------------------------
8-------8-------8-------8---------
8-------8-------8-------8---------
6-6-6-6-6-6-6-6-6-6-6-6-6-6-6-6---
Riff 2 (x 5)
first 4 times last time
-------------------------------- ------------- ----------
-------------------------------- ------------- ----------
-------------------------------- 10--9--7--9-- 10--9--5--
2-------2-------------2-------2- 10--9--7--9-- 10--9--5--
0-------0-------------0-------0- -8--7--5--7-- 8--7--3--
0-0-1-3-0-0-1-3-3-0-1-0-0-1-3-0 ------------- ----------
Riff 1 (x 2)
Intro to Riff 3
---------------------------
---------------------------
-----------5----4----------
6----5-----5----4----3-----
6----5-----3----2----3-----
4----3---------------1-----
Riff 3 (x 4)
--------------------------------------------------------
--------------------------------------------------------
--------------------------------------------------------
2-2-2--2-2-2--2-2-2--2-2-2--2-2-2--2-2-2--2-2-2--2-2-2--
2-2-2--2-2-2--2-2-2--2-2-2--2-2-2--2-2-2--2-2-2--2-2-2--
0-0-0--0-0-0--0-0-0--0-0-0--0-0-0--0-0-0--0-0-0--0-0-0--
first 3 times last time
------------------- -------------
------------------- -------------
--------5---4------ 10--9--7--9--
6---5---5---4---3-- 10--9--7--9--
6---5---3---2---3-- 8--7--5--7--
4---3-----------1-- -------------
Riff 2 (x 4)
Solo
guitar 1 (four times)
--------------------------------
--------------------------------
--------------------------------
2------5-----4-----8--7---------
2------5-----4-----8--7---------
0--0-0-3--3--2-----6--5---------
guitar 2
---------------------------------------------8-7----------8-7------------
----------8--7--8--10--10--8--7--8---------------10-8-7-8-----10-8-7-8-10
9--7--9-----------------------------9--7--9------------------------------
-------------------------------------------------------------------------
-------------------------------------------------------------------------
-------------------------------------------------------------------------
-------------------------------------------------10------12----
----------8--7--8--10--10--8--7--8-----------7-8----7--8-------
9--7--9-----------------------------9--7--9--------------------
---------------------------------------------------------------
---------------------------------------------------------------
---------------------------------------------------------------
Riff 3 (four times)
Riff 1 (two times)




Ваше мнение



Капча