Date: Tue, 15 Oct 1996 07:21:56 +0900
From: Suzuki Tetunori
Subject: TAB:'A SEA TO SUFFER IN' by MY DYING BRIDE
A SAE TO SUFFER IN
Transcribed by Maekawa Tomomi
Typed by Suzuki Tetunori
From [email protected]
Band: MY DYING BRIDE
Album: The Angel And The Dark River
Tuning: C# F# B E G# C#
Riff 1(Guitar1)
---------------------------------------------------------
-------5--------5-----------------5----------5-----------
---------4---------2-2-0-2----------4----------4-2-0-2---
-----2--------2----------------2----------2--------------
---------------------------------------------------------
---------------------------------------------------------
Riff 1(Guitar2)
---------------------------------------------------------
---------------------------------------------------------
---------------------------------------------------------
---------------------------------------------------------
-2----------2---------------2-----------2----------------
-0----------0---------------0-----------0----------------
Riff 2
------------------------------------
------5-----5------------5----------
--------4-----4------------4-2-0-2--
--2-2-----2-----2----2-2------------
--2-2-----2-----2----2--------------
--0-0-----0-----0----0--------------
Riff 3
-------------------------
-------------------------
-------------------------
--9----7-7---------------
--7----5-5------7-7-8-8--
----------------5-5-6-6--
Riff 4
---------------------------------------------
---------------------------------------------
---------------------------------------------
--9----5-5---------------9--5-5--------------
--7----3-3------7-7-8-8--7--3-3--------3-6-5-
----------------5-5-6-6-----------X~~~-1-4-3-
Riff 5
-----------------------------------------------
-----------------------------------------------
-----------------------------------------------
--9----5-5---------------9--5-5----------------
--7----3-3------7-7-8-8--7--3-3---3-2-3--3-6-5-
----------------5-5-6-6-----------1-0-1--1-4-3-
Riff 6
---------------------------------
---------------------------------
---------------------------------
---------------------------------
----------5-555875-----75-----5--
--77777778--------9--99--8-888---
--555555-------------------------
Riff 7
----------------------------------
----------------------------------
----------------------------------
----------------------------------
----------5-5555875-----75-----5--
--77777778---------9--99--8-888---
--555555--------------------------
Riff 8
-----------------------------------------------------
-----------------------------------------------------
-----------------------------------------------------
--7-7-7-7-7-5-8-7-7-7-7-5-8-6-6-6-6-4-7-6-6-6-6-4-7--
--5-5-5---------5-5-5-------4-4-4-------4-4-4--------
-----------------------------------------------------
----------------------------------------------------------
----------------------------------------------------------
----------------------------------------------------------
--10-10-10-10-8-11-10-10-10-10-8-11-9-9-9-9-7-10-12-12-12-
---8--8--8----------8--8--8---------7-7-7--------10-10-10-
----------------------------------------------------------
Riff 9
--------------------------------------
--------------------------------------
--------------------------------------
--7-7-7-7-5-8-7-7-7-7-5-8-6-6-6-6-4-7-
--5-5-5-------5-5-5-------4-4-4-------
--------------------------------------
------------------------------------------------------------------
------------------------------------------------------------------
------------------------------------------------------------------
-10-10-10-10-8-11-10-10-10-10-8-11-9-9-9-9-7-10-12-12-12-12-10-13-
--8--8--8----------8--8--8---------7-7-7--------10-10-10----------
Riff 10(Guitar1)
-----------------------------------------------
-----------------------------------------------
-----7--8--7-----------------------------------
--5-------------6--7--6----10-11-10---9-10-12--
--------------4----------8----------7----------
Riff 10(Guitar2)
-----------------------------------------------
-----------------------------------------------
--7--------------------------------------------
--5-----------6----------10---------9----------
--------------4-----------8---------7----------
-----------------------------------------------
Riff 11
-----------------------------------------------------
-----------------------------------------------------
-----------------------------------------------------
--7---7-8-7--6------------10---10-11-10--9---9-12/---
-----------------7-6--11-----------------------------
-----------------------------------------------------
Riff 12
---------------------------------------------------
---------------------------------------------------
---------------------------------------------------
---------------------------------------------------
--555555554444444433333333777777776666666655555555-
--333333332222222211111111555555554444444433333333-
--------------------
--------------------
--------------------
-----------------5--
--444444447777778---
--222222225555------
Riff 13
------------------------------------------------------
------------------------------------------------------
------------------------------------------------------
5-55-5875----75------5---------5-5-55-5875---75----5--
---------9--9--8---8----7777778-----------9-9--8--8---
------------------------------------------------------
From [email protected] Wed Oct 23 08:09:31 1996
Date: Tue, 22 Oct 1996 06:38:43 +0900
From: Suzuki Tetunori
To: [email protected]
Subject: Tab: 'a sea to suffer in' by 'my dying bride'
[The following text is in the "ISO-2022-JP" character set]
[Your display is set for the "US-ASCII" character set]
[Some characters may be displayed incorrectly]
Name:suzuki tetunori
e-mail: [email protected]
A SAE TO SUFFER IN
Transcribed by Maekawa Tomomi
Typed by Suzuki Tetunori
From [email protected]
Band: MY DYING BRIDE
Album: The Angel And The Dark River
Tuning: C# F# B E G# C#
Riff 1(Guitar1)
---------------------------------------------------------
-------5--------5-----------------5----------5-----------
---------4---------2-2-0-2----------4----------4-2-0-2---
-----2--------2----------------2----------2--------------
---------------------------------------------------------
---------------------------------------------------------
Riff 1(Guitar2)
---------------------------------------------------------
---------------------------------------------------------
---------------------------------------------------------
---------------------------------------------------------
-2----------2---------------2-----------2----------------
-0----------0---------------0-----------0----------------
Riff 2
------------------------------------
------5-----5------------5----------
--------4-----4------------4-2-0-2--
--2-2-----2-----2----2-2------------
--2-2-----2-----2----2--------------
--0-0-----0-----0----0--------------
Riff 3
-------------------------
-------------------------
-------------------------
--9----7-7---------------
--7----5-5------7-7-8-8--
----------------5-5-6-6--
Riff 4
---------------------------------------------
---------------------------------------------
---------------------------------------------
--9----5-5---------------9--5-5--------------
--7----3-3------7-7-8-8--7--3-3--------3-6-5-
----------------5-5-6-6-----------X~~~-1-4-3-
Riff 5
-----------------------------------------------
-----------------------------------------------
-----------------------------------------------
--9----5-5---------------9--5-5----------------
--7----3-3------7-7-8-8--7--3-3---3-2-3--3-6-5-
----------------5-5-6-6-----------1-0-1--1-4-3-
Riff 6
---------------------------------
---------------------------------
---------------------------------
---------------------------------
----------5-555875-----75-----5--
--77777778--------9--99--8-888---
--555555-------------------------
Riff 7
----------------------------------
----------------------------------
----------------------------------
----------------------------------
----------5-5555875-----75-----5--
--77777778---------9--99--8-888---
--555555--------------------------
Riff 8
-----------------------------------------------------
-----------------------------------------------------
-----------------------------------------------------
--7-7-7-7-7-5-8-7-7-7-7-5-8-6-6-6-6-4-7-6-6-6-6-4-7--
--5-5-5---------5-5-5-------4-4-4-------4-4-4--------
-----------------------------------------------------
----------------------------------------------------------
----------------------------------------------------------
----------------------------------------------------------
--10-10-10-10-8-11-10-10-10-10-8-11-9-9-9-9-7-10-12-12-12-
---8--8--8----------8--8--8---------7-7-7--------10-10-10-
----------------------------------------------------------
Riff 9
--------------------------------------
--------------------------------------
--------------------------------------
--7-7-7-7-5-8-7-7-7-7-5-8-6-6-6-6-4-7-
--5-5-5-------5-5-5-------4-4-4-------
--------------------------------------
------------------------------------------------------------------
------------------------------------------------------------------
------------------------------------------------------------------
-10-10-10-10-8-11-10-10-10-10-8-11-9-9-9-9-7-10-12-12-12-12-10-13-
--8--8--8----------8--8--8---------7-7-7--------10-10-10----------
Riff 10(Guitar1)
-----------------------------------------------
-----------------------------------------------
-----7--8--7-----------------------------------
--5-------------6--7--6----10-11-10---9-10-12--
--------------4----------8----------7----------
Riff 10(Guitar2)
-----------------------------------------------
-----------------------------------------------
--7--------------------------------------------
--5-----------6----------10---------9----------
--------------4-----------8---------7----------
-----------------------------------------------
Riff 11
-----------------------------------------------------
-----------------------------------------------------
-----------------------------------------------------
--7---7-8-7--6------------10---10-11-10--9---9-12/---
-----------------7-6--11-----------------------------
-----------------------------------------------------
Riff 12
---------------------------------------------------
---------------------------------------------------
---------------------------------------------------
---------------------------------------------------
--555555554444444433333333777777776666666655555555-
--333333332222222211111111555555554444444433333333-
--------------------
--------------------
--------------------
-----------------5--
--444444447777778---
--222222225555------
Riff 13
------------------------------------------------------
------------------------------------------------------
------------------------------------------------------
5-55-5875----75------5---------5-5-55-5875---75----5--
---------9--9--8---8----7777778-----------9-9--8--8---
------------------------------------------------------

$B!!!!!!(J




Ваше мнение



Капча