A Black Voyage
TUNE DOWN 1.5 SEMITONES TO C#
INTRO GUITAR ONE
---------------------------------------------------------------------------
---------------------------------------------------------------------------
--------------------------------9---7---5---4--------9---7---5---4--------9
--4----------7---5---3---2--5-55--7---5---3---2--5-55--7---5---3---2--5-55-
------------------3-33-----------------3-33-----------------3-33-----------
---------------------------------------
---------------------------------------
---7---5---4--------9---7---5-
-7---5---3---2--5-55-
------3-33--
GUITAR TWO
---------------------------------------------------------------------------
---------------------------------------------------------------------------
------------------------------------------------------9-9^-----------------
----------7--------------------7-7--5757^3-5^2--595-7-7--5757^3-5^2--595-7-
---------------------------------------------------------------------------
---------------------------------------
---------------------------------------
9-9^-----------------------------
------------------------------
GUITAR ONE 3 TIMES
--------|--------------------------------------------------------|
--------|--------------------------------------------------------|
--------|O-----------------------------------------------------O-|
--9-----|O-------------------------------------------5---------O-|
--7-----|------7--5--7----8---7--------7--5--7----3-----3--2-----|
--------|---0-----------------------0----------------------------|
GUITAR TWO
--------|--------------------------------------------------------|
--------|--------------------------------------------------------|
--------|O-------------------------------------------7---------O-|
--9-----|O----------------------------------------5--5--5--4---O-|
--7-----|--2--------------------------------------3-----3--2-----|
--------|--0-----------------------------------------------------|
GUITAR ONE (TWO PLAYS MISC. FEEDBACK) 7 TIMES
-|-----------------------------------------------------|-----------
-|-----------------------------------------------------|-----------
-|O---------------------------------------------------O|-----------
-|O----------------------2H3P2-----------------2-3----O|---9-------
-|---2------------2--2-3-------3-2---3--3-3------------|---7-------
-|---O------------0------------------1--1-1-0----------|-----------
BOTH GUITARS 5 TIMES
-|----------------------------------------------------------|------
-|----------------------------------------------------------|------
-|O--------------------------------------------------------O|------
-|O-----9--4----5------------------9--4--7--2--4--5-----7--O|---9--
-|---2--7--2----3--5------------2--7--2--5--0--2--3--5--5---|---7--
-|---0-------------3---2ah------0--------------------3--5---|------
GUITAR ONE (GUITAR TWO PLAYS MISC. FEEDBACK AND NOISE) 13
TIMES
-|-----------------------------------------------------------------------|
-|-----------------------------------------------------------------------|
-|O---------------------------------------------------------------------0|
-|O----5-----5-5-5--8--7--5-----5-----5-----5-5-5--8--7--8--10---878----0|
-|---------------------------8-------------------------------------------|
-|-----------------------------------------------------------------------|
BOTH GUITARS 4 TIMES
-|-----------------------------------------------------------------------|
-|-----------------------------------------------------------------------|
-|O---------------------------------------------------------------------O|
-|O---------------------------------------------------------------------O|
-|-----5------------8--7--5--3--5-----5------------8--7--8--10---878-----|
-|-----3-----3-3-3--6--5--3--1--3-----3-----3-3-3--6--5--6--8----656-----|
-|---------------------------------------------------------------------|
-|---------------------------------------------------------------------|
-|---------------------------------------------------------------------|
-|---------------------------------------------------------------------|
-|-----5------------8--7--5--3--5------5------------8--7--8--------10--|
-|-----3-----3-3-3--6--5--3--1--3------3-----3-3-3--6--5--6--------8---|
GUITAR ONE (TWO PLAYS THE RIFF BELOW) 4 TIMES
-|----------------------------------------------------------|
-|----------------------------------------------------------|
-|O--------------------------------------------------------O|
-|O-----9--4----5------------------9--4--7--2--4--5-----7--O|
-|---2--7--2----3--5------------2--7--2--5--0--2--3--5--5---|
-|---0-------------3---2ah------0--------------------3--5---|
GUITAR TWO (THIS RIFF COMES ON THE SECOND TIME OF THE RIFF
ABOVE) 3 TIMES
-|-----------------------------------------------------------------------------------|
-|-----------------------------------------------------------------------------------|
-|O---------------------------------------------------------------------------------O|
-|O-------9-9-----------------------------------------9-9-------7-7H9P7--9-7--------O|
-|-----7-------9-9-----10-10------10-10--9H10P9--7-------9-9---------------9-10---12-|
-|-----------7-------8---------10-----------------------7----------------------10----|
ENDING
GUITAR ONE
-|---------
-|---------
-|---------
-|-9-------
-|-7-------
-|-0-------
GUITAR TWO
-|---------
-|---------
-|---------
-|----9-9--
-|-7-------
-|---------




Ваше мнение



Капча